Oops, an error
Loading. Please wait.
70,850 views 99 this week
19 commentsread comments
1 2 3 4 5
x 63
add to favorites
launch autoscroll
font size
0
reset
guitar tuner
backing track
0:00
0:00
Autoscroll
slow
fast
+/-
esc
set tempo
stop
Fire - Jimi Hendrix


[Pre-Verse]

G|--------------|
D|-6-5\--35----*|
A|---------55--*|
E|--------------|


[Verse Riff]

G|----------|
D|*--------*|
A|*--355---*|
E|--5-------|


[Chorus Riff]

G|------------------|
D|*----------------*|
A|*5-5-------223344*|
E|-----2345-5-------|


[Bridge Into Solo]  

 "I'd move over rover and let Jimi take over"
G|-----------|-----------|---------------|---------|-----------------|
D|*---------*|*---------*|*-------------*|---------|-----------------|
A|*-5-5-5-5-*|*-3-3-3-3-*|*-12-12-12-12-*|-3-3-3-3-|-3-3-3-3-3-3-3-3-|
E|-----------|-----------|---------------|---------|-----------------|


[Solo Riff]

G|------------------|
D|*----------------*|
A|*7-7-------445566*|
E|-----4567-7-------|


PERFORMANCE NOTES: (Sequence of patterns)

Pattern                         Repeats
-------                         -------
Pre-verse                       Two
Verse                           Six
Chorus                          Four

Verse                           Six
Chorus                          Four

Bridge into Solo                One
Solo                            Four

Pre-verse                       Two
Verse                           Six
Chorus                          Four

Solo                            Two
Chorus                          Two
Solo                            Two
Pre-Verse                       One
Chorus                          One
Solo                            One [Fade out...]



************************************

| \  Slide down

************************************
Suggest correction
comments
print report bad tab
19 comments total. Showing first comments.
0 reply
J_Hendrix_44 10 Dec 10, 2004 07:00 PM

NICE

0 reply
KENZI 20 Jun 11, 2005 08:00 PM

thanks this tab is funky and awesome

0 reply
rock on camel 10 Aug 28, 2005 08:00 PM

yea spot on

guest
Wanna post a correction for this tab? Suggest correction