Oops, an error
Loading. Please wait.

Fire Bass Tab

version 3
version 3
2,319 views 3 this week
2 commentsread comments
1 2 3 4 5
worth learning
x 3
add to favorites
launch autoscroll
font size
0
reset
guitar tuner
Autoscroll
slow
fast
+/-
esc
set tempo
stop
Help us to improve Ultimate-Guitar.com Take our survey!
×
			     Fire - Jimi Hendrix

G|----------------------------------------------------------------------------|
D|-6-5--3-5----6-5--3-5----------------------------------------------------22-|
A|---------55----------55-0345---0345---0345---0345---0345---0345---55-5-3~---|
E|--------------------------------------------------------------------5-5-----|

G|3345-----------------------------------------------------------------------|
D|--------------------------223345-------------------------------------------|
A|-----55-5-3~-------55-5-3~-------55-5-3~----335--0345---0345---0345---0345-|
E|-------5-5--223345---5-5-----------5-5--2233-------------------------------|

G|----------------------------------------------------------------------------|
D|--------------223345----------------------223345----------------------------|
A|--0345-55-5-3~-------55-5-3~-------55-5-3~-------55-5-3~------5~~3~--3~-77--|
E|---------5-5-----------5-5--223345---5-5-----------5-5--223345-----5~-----7-|

G|----------------------------------------------------------------------------|
D|----445567----------------------445567--------------------------------------|
A|7-5~-------77-7-5~-------77-7-5~-------77-7-5~-------6-5--3-5----6-5--3-5---|
E|-7-----------7-7--445567---7-7-----------7-7--445567---------55----------55-|

G|----------------------------------------------------------------------------|
D|------------------------------------------------223345----------------------|
A|-0345---0345---0345---0345---0345---0345-55-5-3~-------55-5-3~-------55-5-3-|
E|-------------------------------------------5-5-----------5-5--223345---5-5--|

G|----------------------------------------------------------------------------|
D|-223345----------------------445567------------------------223345-----------|
A|~-------55-5-3~-------77-7-5~---------77-7-5~-------55-5-3~-------55-5-3~---|
E|----------5-5--223345---7-7---------77-------445567---5-5-----------5-5--22-|

G|---------------------------------------------------------------------------|
D|------------445567---------------6-5--3-5----------------------------------|
A|-----77-7-5~-------77-7-5~---------------55--------------------------------|
E|3345---7-7-----------7-7--445567-------------------------------------------|
Suggest correction
Give kudos to tab author, rate the tab!
1 2 3 4 5
comments
print report bad tab
2 comments total.
0 reply
tarbaguitar 10 wrote on April 19 2007, 02:35 pm

for the verse theres only 3 different notes played

0 reply
bassbro 41 wrote on August 27 2009, 06:00 am

this is terrible :(

guest
You may want to rate the tab now too:
select rating
Please do not post tabs as comments. Select "correction" instead!