Oops, an error
Loading. Please wait.

Fire Bass

version 4
version 4
1,128 views 39 this week
no commentswrite comment
1 2 3 4 5
3 more votes to show rating
add to favorites
launch autoscroll
font size
0
reset
guitar tuner
backing track
0:00
0:00
×
Best way to learn
"Fire"
Autoscroll
slow
fast
+/-
esc
set tempo
stop
Author
Difficulty
novice
Jimi Hendrix
Fire
Bass Tabs by sxejoo
(http://www.youtube.com/sxejoo)



G|--------------------------------------------------------------------------|
D|--6-5\---3-5-0-0-(x2)-----------------------------------------------------|
A|--------------------------------------------------------------------------|
E|--------------------------------------------------------------------------|

G|--------------------------------------------------------------------------|
D|--------------------------------------------------------------------------|
A|----3-5-5-(x6)------------------------------------------------------------|
E|--5-----------------------------------------------------------------------|

G|--------------------------------------------------------------------------|
D|--------------------------------------------------------------------------|
A|--5-5-------------2-3-4-(x3)-----5-5-------------2-3-4-5------------------|
E|------2-3-4-5---5--------------------2-3-4-5---5--------------------------|

G|--------------------------------------------------------------------------|
D|--------------------------------------------------------------------------|
A|----3-5-5-(x5)------------------------------------------------------------|
E|--5-----------------------------------------------------------------------|

G|--------------------------------------------------------------------------|
D|--------------------------------------------------------------------------|
A|--5-5-------------2-3-4-(x4)-5(x8)-3(x8)/12(x8)-3(x8)---------------------|
E|------2-3-4-5---5---------------------------------------------------------|

G|--------------------------------------------------------------------------|
D|--------------------------------------------------------------------------|
A|--7-7-------------4-5-6-(x3)-----7-7-------------4-5----------------------|
E|------4-5-6-7---7--------------------4-5-6-7---7--------------------------|

G|--------------------------------------------------------------------------|
D|--6-5\---3-5-0-0-(x2)-----------------------------------------------------|
A|--------------------------------------------------------------------------|
E|--------------------------------------------------------------------------|

G|--------------------------------------------------------------------------|
D|--------------------------------------------------------------------------|
A|----3-5-5-(x6)------------------------------------------------------------|
E|--5-----------------------------------------------------------------------|

G|--------------------------------------------------------------------------|
D|--------------------------------------------------------------------------|
A|--5-5-------------2-3-4-(x3)------7-7-------------4-5-6-(x2)--------------|
E|------2-3-4-5---5--------------------4-5-6-7---7--------------------------|

G|--------------------------------------------------------------------------|
D|------------------------------------------------------6-5\---3-5-0-0------|
A|--5-5-------------2-3-4-(x2)------7-7-------------4-5---------------------|
E|------2-3-4-5---5--------------------4-5-6-7---7--------------------------|
Suggest correction
Give kudos to tab author, rate the tab!
1 2 3 4 5
comments
print report bad tab
guest
You may want to rate the tab now too:
select rating
Wanna post a correction for this tab? Suggest correction