Oops, an error
Loading. Please wait.

Fire Bass Tab

version 4
version 4
24,229 views 63 this week
no commentswrite comment
1 2 3 4 5
excellent!
x 7
add to favorites
launch autoscroll
font size
0
reset
guitar tuner
Autoscroll
slow
fast
+/-
esc
set tempo
stop
Help us to improve Ultimate-Guitar.com Take our survey!
×
Author
Difficulty
novice
-------------------------------------------------------------------------------
			      FIRE - Jimi Hendrix Experience                 
-------------------------------------------------------------------------------

Tabbed By : Justdown
Tuning:Standard (E,A,D,G) 

Im posotive this is 100% correct

 INTRO/OUTRO
G|---------------------------------------------------------------------------|
D|--6-5---3-5----------6-5---3-5---------------------------------------------|
A|------------5-5----------------5-5-------3--5-5-------3--5-5---------------|
E|---------------------------------------5------------5----------------------|

VERSE 1
G|------------------------|
D|------------------------|
A|------3--5-5------------|  x4
E|----5-------------------|

CHORUS              (Let me stand next to you fire...)
G|--------------------------------------------------------------------|
D|--------------------------------------------------------------------|
A|--5-5-----------2-2-3-3-4-4---5-5-----------2-2-3-3-4-4-------------|  x4  
E|------2-3-4-5-5-------------------2-3-4-5-5-------------------------|   

VERSE 2
G|------------------------|
D|------------------------|
A|------3--5-5------------|  x5
E|----5-------------------|


CHORUS              (Let me stand next to you fire...)
G|--------------------------------------------------------------------|
D|--------------------------------------------------------------------|
A|--5-5-----------2-2-3-3-4-4---5-5-----------2-2-3-3-4-4-------------|  x4  
E|------2-3-4-5-5-------------------2-3-4-5-5-------------------------|   

BRIDGE              (Id move over rover...)
G|--7--7--7-5----7-7-7-7-5------5--5--5--3----5-5-5-5--3---------------------|
D|------------7------------7---------------5-------------5-------------------|
A|--5--5--5------5-5-5-5--------3--3--3-------3-3-3-3------------------------|
E|---------------------------------------------------------------------------|

G|---------------------------------------------------------------------------|
D|---------------------------------------------------------------------------|
A|--10/12-12-12-12-12-12-12-12-12\3-3-3-3--33333333--------------------------|
E|---------------------------------------------------------------------------|

GUITAR SOLO
G|---------------------------------------------------------------------------|
D|---------------------------------------------------------------------------|
A|--7-7-----------4-4-5-5-6-6---7-7------------4-4-5-5-6-6-------------------|
E|------4-5-6-7-7--------------------4-5-6-7-7-------------------------------|
VERSE 3
G|------------------------|
D|------------------------|
A|------3--5-5------------|  x5
E|----5-------------------|

LAST CHORUS
G|---------------------------------------------------------------------------|
D|---------------------------------------------------------------------------|
A|--5-5-----------2-2-3-3-4-4---5-5-----------2-2-3-3-4-4--------------------|  x4  
E|------2-3-4-5-5-------------------2-3-4-5-5--------------------------------|   

G|---------------------------------------------------------------------------|
D|---------------------------------------------------------------------------|
A|--7-7-----------4-4-5-5-6-6---7-7------------4-4-5-5-6-6-------------------|  x4
E|------4-5-6-7-7--------------------4-5-6-7-7-------------------------------|

^^And then you pretty much just swap between the two until it reaches the outro^^

Enjoy :D

| /  slide up
| \  slide down
| h  hammer-on
| p  pull-off
| ~  vibrato
| +  harmonic
| x  Mute note
===============================================================================
Suggest correction
comments
print report bad tab
guest
You may want to rate the tab now too:
select rating
Please do not post tabs as comments. Select "correction" instead!