Oops, an error
Loading. Please wait.

Foxy Lady Tab

version 1
version 1

Whole song

Interactive

561,356 views 897 this week
33 commentsread comments
1 2 3 4 5
accurate
x 87
add to favorites
launch autoscroll
font size
0
reset
how to read this tab
guitar tuner
Autoscroll
slow
fast
+/-
esc
set tempo
stop
Help us to improve Ultimate-Guitar.com Take our survey!
×
Artist:Jimi Hendrix
Song:Foxy Lady


Nat.Tuning

Heavy fuzz face

[Intro]
(increase volume until feedback peaks)

e|---------------------|
B|-10------------------|
G|-10(11)~~~~~~~~--11\-|
D|---------------------|
A|---------------------|
E|---------------------|


[Verse riff]

   F#7#9
e||----5------5------5-5------------||
B||----5------5------5-5------------||
G||---------------------------------||
D||-------4-4-----------------------||
A||--------------------------2-3-4--||
E||2-2-----------2-2-----5----------||

   +
e|-------------------------------|
B|--------------------14---------|
G|-16(18)-14~--16(18)----14~-----|
D|---------------------------16\-|
A|-------------------------------|
E|-------------------------------|


[Chorus riffs]

  *                 **
e|---------------|------------------|
B|---------------|------------------|
G|---------------|------------------|
D|-----4-----2h4-|------4-6p4----4--|
A|-4h6---2h4-----|--4/6--------6----|
E|---------------|---------------2--|


[Solo]

e|-------------------------------------------------------------------------------------|
B|-17(19)~(19)17-----------------------------------------------------------------------|
G|---------------14~-14\--/9(11)~-9p7-----------9-11(13)-11(13)--11~~--11-9h11p9----9~-|
D|------------------------------------7~----/11----------------------------------11----|
A|----------------------------------------9--------------------------------------------|
E|-------------------------------------------------------------------------------------|

e|-------------------14------------14----14----14-17(19)-17~--14----14-16-14-----------------|
B|----------------14----17-17(19)~----17----14-------------------17----------17-14-----14-17-|
G|-9~9~-----16(18)--------------------------------------------------------------16(18)-------|
D|------11-----------------------------------------------------------------------------------|
A|-------------------------------------------------------------------------------------------|
E|-------------------------------------------------------------------------------------------|

e|---------------------------------------------14----14-----------14----14--------14--|
B|-14-----14-17-14-----14------14-17(19)~--17~----17----14-----14----17-14-14-----14--|
G|-16(18)-------16(18)-16(18)---------------------------16(18)-------------16(18)-----|
D|------------------------------------------------------------------------------------|
A|------------------------------------------------------------------------------------|
E|------------------------------------------------------------------------------------|

e|--------------------------------------|
B|-16p14----14--------------------------|
G|-------16----16p14----14--------------|
D|-------------------16----16\14----14--|
A|-------------------------------17-----|
E|--------------------------------------|


(Don't Play The Solo With Your TEETH!)



************************************

| (n)  Ghost note
| h    Hammer-on
| p    Pull-off
| /    Slide up
| \    Slide down
| ~    Vibrato 

************************************
Suggest correction
comments
print report bad tab
33 comments total. Showing first comments. show 1 bad comment
+18 reply
MisterMojoRisin 0 wrote on April 24 2002, 12:00 am

hendrix rules!

+9 reply
Steve_da_dark 45 wrote on April 24 2002, 12:00 am

yes.

guest
You may want to rate the tab now too:
select rating
Please do not post tabs as comments. Select "correction" instead!