Oops, an error
Loading. Please wait.

Freedom Bass Tab

version 1
version 1

Whole song

Interactive

7,587 views 12 this week
2 commentsread comments
1 2 3 4 5
accurate
x 5
add to favorites
launch autoscroll
font size
0
reset
guitar tuner
Tab Pro tools
  • play this tab
  • loop segment
  • change instrument
  • show fretboard
  • metronome
×
Best way to learn
"Freedom"
Autoscroll
slow
fast
+/-
esc
set tempo
stop
Contributor
Jimi Hendrix - "Freedom"
downtune the E string a half step
b = bend string
\ = slide down
h = hammer on
When the bass comes in, a long descension of notes is played.  I think it's the entire
scale of the song played backwards.  I don't know how to make the scale though.
Something similar to:
G |53----------|
D |--5431------|
A |------31----|
Eb|--------4320|
   1st verse riff    Bridge
G |----------------|---------3-5-|
D |----------------|-1-3-4-5-----|
A |3-1-3-------1-3-|3-3-3-3------|
Eb|------0-2-4-----|-------------|
   chorus intro                chorus riff
G |---------------------------|--------------|
D |----------------------4--2-|--------------|
A |-----3--646-3------3-------|-----3--646-3-|
Eb|0-0-----------0-0----------|0-0-----------|
   2nd/4th verse riff
G |---------------|
D |---------------|
A |--1-3-----13---|
Eb|4-----0-4---40-|
   3rd verse intro      3rd verse riff
G |-------------------|-----------------|
D |-------------1-4-7-|-------------9b-7|
A |---------1-3-------|68---------------|
Eb|0-0--2-4-----------|----7b-\0-2------|
   Solo
G |------------------------------------------------------------------------------|
D |333333333--------1--111111111--------3--333333333------3-1--111111111-------3-|
A |---------------3-------------------3---------------------------------------3--|
Eb|---------2-5-7---------------2-5-7---------------2-5-7---------------2-5-7----|
   solo continued (4 times)  solo end
G |-------------------------|---------|
D |3-333-10------------1----|---------|
A |--------3------1--02-----|3--------|
Eb|----------2--2---2----2--|---------|
   Outro
G |55-33-------------------------|
D |------55-33-11----------------|
A |---------------33-11-11-13-33-|
Eb|------------------------------|
   outro continued
G |----8------------10----6---------8----4---------6----2-----------2-5----|
D |8h10--108-----10----6h8--86----8---4h6--64----6---2h4--42----1-4--------|
A |---------10-8--------------8-6------------6-4------------4-2------------|
Eb|------------------------------------------------------------------------|
comments
print report bad tab
2 comments total.
0 reply
R8:31b wrote on March 7 2010, 12:13 pm

great tab, all notes are spot on, I just would have changed some positions of a few to make it a little easier to play, I gave 5* anyways thought :D

0 reply
nierzeje wrote on December 9 2015, 04:34 pm

Tab incomplete. Clearly wrong. its inaccurate thats all i can say. that makes it a bad bad bad bad bad bad bad tab.really.i mean it.

I want to post or [tab]
guest
You may want to rate the tab now too:
select rating
Please do not post tabs as comments. Select "correction" instead!