Oops, an error
Loading. Please wait.

Gypsy Eyes Tab

version 1
version 1

Whole song

Interactive

41,674 views 12 this week
4 commentsread comments
1 2 3 4 5
x 10
add to favorites
launch autoscroll
font size
0
reset
how to read this tab
guitar tuner
backing track
0:00
0:00
×
Best way to learn
"Gypsy Eyes"
Autoscroll
slow
fast
+/-
esc
set tempo
stop
Author
[Intro]
e|-----------------------------------------------------|
B|-x\----------------x-x-x\------------------x-x--5(6)-|
G|-x\----------------x-x-x\------------------x-x--5(6)-|
D|-x\--7p5-7p5-----7-x-x-x\---7p5-7p5------7-x-x-------|
A|-----------------------------------------------------|
E|-------------8(9)-------------------8(9)-------------|

e|----------------------------------------|
B|-----------------x-x--------------------|
G|-----------------x-x--------------------|
D|-7p5-7p5------7--x-x---7p5-7p5------5t7-|
A|----------------------------------------|
E|---------8(9)------------------8(9)-----|

[Chorus]
(guitar 1)
e|-------------------------------|
B|-5-8-8(10)-8-8(10)-8-5---------|
G|-----------------------5-7-5-7-|
D|-------------------------------|
A|-------------------------------|
E|-------------------------------|

(guitar 2)
e|----------------------------------------------------|
B|-12-15-15(17)-15-15(17)-15-12-----------------------|
G|------------------------------15-15(17)-15-15(17)---|
D|----------------------------------------------------|
A|----------------------------------------------------|
E|----------------------------------------------------|
-"well I realize that I've been hypnotized"---------

(guitar 1)
e|------------------------------|
B|-------------8----------------|
G|------5---7---7(9)-7p5--------|
D|--7-------------------7--5t7~-|
A|------------------------------|
E|-"I love you gypsy eyes"------|

(guitar 2)
e|------------15----------------|
B|-----13-15-----15(17)-15p13~--|
G|--14--------------------------|
D|------------------------------|
A|------------------------------|
E|------------------------------|

(guitar 1)
e|------------------------------|
B|-------------8----------------|
G|------5---7---7(9)-7p5--------|
D|--7-------------------7--5t7~-|
A|------------------------------|
E|-"I love you gypsy eyes"------|

(guitar 2)
e|------------15----------------|
B|-----13-15-----15(17)-15p13~--|
G|--14--------------------------|
D|------------------------------|
A|------------------------------|
E|------------------------------|

(4x)
e|-----------------------|
B|----5(6)---------------|
G|----5(6)---------------|
D|---------7p5-7p5---5t7-|
A|-----------------------|
E|--5--------------8-----|

[Section A]
e|-----------------------------------|
B|---------------------------7(9)--7-|
G|---------------------------7(9)--7-|
D|-----5-7-7------5-7-7--------------|"Gypsy"
A|-----------------------------------|
E|-3-5-------3-5---------3-5---------|

e|----------------------------------12-12-12-|
B|--------------------------7(9)7p5-13-13-13-|
G|--------------------------7(9)7p5----------|
D|------5-7-7-----5-7-7----------------------|
A|-------------------------------------------|
E|-3-5--------3-5-------3-5------------------|

[Verse 1]
(3x)
e|--------------------------------|
B|-5-5---7-7(8)--7--5(6)----5-5---|
G|-5-5---7-7(8)--7--5(6)----5-5---|
D|-----------------------7------7-|
A|--------------------------------|
E|-5-5-----5--------5-------------|

[tag riffs]
e|----------------|
B|-8(10)--5-------|
G|---------7-5----|
D|--------------7-|
A|----------------|
E|----------------|

e|--------------------------|
B|--------------------------|
G|---5-7-7(9)-----5-7-7(9)--|
D|-7---------7---7--------7-|
A|--------------------------|
E|--------------------------|

e|--------------------------------8----8----8----8--------|
B|--8-----------------------------8----8----8----8--------|
G|------9---7-----5-------7--5----7(9)-7(9)-7(9)-7(9)-7p5-|
D|----------------------7---------------------------------|
A|--------------------------------------------------------|
E|-"do you still think about me"--------------------------|

[Section A]
e|-----------------------------------|
B|---------------------------7(9)--7-|
G|---------------------------7(9)--7-|
D|-----5-7-7------5-7-7--------------|"Gypsy"
A|-----------------------------------|
E|-3-5-------3-5---------3-5---------|

e|----------------------------------12-12-12-|
B|--------------------------7(9)7p5-13-13-13-|
G|--------------------------7(9)7p5----------|
D|------5-7-7-----5-7-7----------------------|
A|-------------------------------------------|
E|-3-5--------3-5-------3-5------------------|

[Verse 1]
e|--------------------------------|
B|-5-5---7-7(8)--7--5(6)----5-5---|
G|-5-5---7-7(8)--7--5(6)----5-5---|
D|-----------------------7------7-|
A|--------------------------------|
E|-5-5-----5--------5-------------|

e|-15(17)-15(17)-15(17)-12-15-15(17)-|
B|-----------------------------------|
G|-----------------------------------|
D|-----------------------------------|
A|-----------------------------------|
E|-----------------------------------|

e|-15----------------|
B|-15(17)-13(14)-----|
G|---------------15\-|
D|-------------------|
A|-------------------|
E|-------------------|

e|-----------------------|
B|-15(17)-----13(14)-----|
G|---------14--------14\-|
D|-----------------------|
A|-----------------------|
E|-----------------------|

[Verse 3]
(leading)
e|-----------------|
B|---------8(10)~~-|
G|-7(9)7-5---------|
D|-----------------|
A|-----------------|
E|-----------------|

(repeat this pattern throughout verse)
e|---------------------------|
B|-5-----5-----5--5-----5----|
G|-5-----5-----5--5-----5----|
D|-7--5--7--5--7--7--5--7--5-|
A|---------------------------|
E|-5-----5------5---------5--|

(guitar 1)
e|---------------------------------------------------|
B|-8(10)-8(10)-8(10)-8(10)-8-5-8-8--8(10)-5----------|
G|------------------------------------------7-5(6)---|
D|-------------------------------------------------7-|
A|---------------------------------------------------|
E|---------------------------------------------------|

(guitar 2)
e|-10(12)-10(12)-10(12)-10(12)--10(12)-(12)10p8----|
B|----------------------------------------------10-|
G|-------------------------------------------------|
D|-------------------------------------------------|
A|-------------------------------------------------|
E|-------------------------------------------------|

(guitar 1)
e|-------------------------|
B|-8---5-------------------|
G|-------7-5---------------|
D|-----------7-5-------5t7-|
A|---------------7\5-------|
E|---------------------5---|

e|-8---5-----------------|
B|-------8-5-------------|
G|-----------7-5---------|
D|---------------7-------|
A|---------------------0-|
E|-----------------------|

[Instrumental]
e|-----------------------------------------------------|
B|-x\----------------x-x-x\------------------x-x--5(6)-|
G|-x\----------------x-x-x\------------------x-x--5(6)-|
D|-x\--7p5-7p5-----7-x-x-x\---7p5-7p5------7-x-x-------|
A|-----------------------------------------------------|
E|-------------8(9)-------------------8(9)-------------|

e|----------------------------------------|
B|-----------------x-x--------------------|
G|-----------------x-x--------------------|
D|-7p5-7p5------7--x-x---7p5-7p5------5t7-|
A|----------------------------------------|
E|---------8(9)------------------8(9)-----|

[Chorus]
(guitar 1)
e|-------------------------------|
B|-5-8-8(10)-8-8(10)-8-5---------|
G|-----------------------5-7-5-7-|
D|-------------------------------|
A|-------------------------------|
E|-------------------------------|

(guitar 2)
e|----------------------------------------------------|
B|-12-15-15(17)-15-15(17)-15-12-----------------------|
G|------------------------------15-15(17)-15-15(17)---|
D|----------------------------------------------------|
A|----------------------------------------------------|
E|----------------------------------------------------|
-"well I realize that I've been hypnotized"---------

(guitar 1)
e|------------------------------|
B|-------------8----------------|
G|------5---7---7(9)-7p5--------|
D|--7-------------------7--5t7~-|
A|------------------------------|
E|-"I love you gypsy eyes"------|

(guitar 2)
e|------------15----------------|
B|-----13-15-----15(17)-15p13~--|
G|--14--------------------------|
D|------------------------------|
A|------------------------------|
E|------------------------------|

(guitar 1)
e|------------------------------|
B|-------------8----------------|
G|------5---7---7(9)-7p5--------|
D|--7-------------------7--5t7~-|
A|------------------------------|
E|-"I love you gypsy eyes"------|

(guitar 2)
e|------------15----------------|
B|-----13-15-----15(17)-15p13~--|
G|--14--------------------------|
D|------------------------------|
A|------------------------------|
E|------------------------------|

(4x)
e|-----------------------|
B|----5(6)---------------|
G|----5(6)---------------|
D|---------7p5-7p5---5t7-|
A|-----------------------|
E|--5--------------8-----|

(guitar 1)
e|--------------------------|
B|-------13-------13--------|
G|-12-14----12-14----12t14~-|
D|--------------------------|
A|--------------------------|
E|-"I love you gypsy eyes"--|

(guitar 2)
e|---------------------------|
B|---------------------------|
G|----------5---------5------|
D|--5--7--------5--7----5t7~-|
A|---------------------------|
E|---------------------------|

(guitar 1)
e|------------------------------------------|
B|-------13-15--15(17)-15(17)-(17)15p13-----|
G|-12h14--------------------------------14~-|
D|------------------------------------------|
A|------------------------------------------|
E|-"I love you gypsy eyes"------------------|

(guitar 2)
e|---------------------------|
B|---------------------------|
G|-----5-7-7(9)-7(9)-(9)7----|
D|-5h7--------------------5~-|
A|---------------------------|
E|---------------------------|

(repeat section a with this on guitar 2)
e|-15------15----15-----15------15------------|
B|-15(17)-(17)15-15(17)-15(17)-(17)15--13-----|
G|----------------------------------------14~-|
D|--------------------------------------------|
A|--------------------------------------------|
E|--------------------------------------------|

[Verse 4]
e|------------------------------------|
B|------------------------------------|
G|------------------------------------|
D|-----5-7-----5-7---------5----------|
A|---------------------3-----5(6)-5-3-|
E|-3-5-----3-5-----3-5---5------------|

[Verse 3]
(leading)
e|-----------------|
B|---------8(10)~~-|
G|-7(9)7-5---------|
D|-----------------|
A|-----------------|
E|-----------------|

(guitar 2]
[Outro]
e|----------5-8-5---9-8-----5-8-7-----5-8-5-----5-8-5---|
B|------5-8-------5-----5-8-------5-8-------5-8---------|
G|-7(9)-------------------------------------------------|
D|------------------------------------------------------|
A|------------------------------------------------------|
E|------------------------------------------------------|

e|-----9-9-9-9-9-9-9---10-10-10-11-11-11-12-12-12-|
B|-/8--8-8-8-8-8-8-8------------------------------|
G|-/9--9-9-9-9-9-9-9---10-10-10-11-11-11-12-12-12-|
D|------------------------------------------------|
A|------------------------------------------------|
E|------------------------------------------------|


************************************

| x    Dead note
| (n)  Ghost note
| p    Pull-off
| t    Tapping
| ~    Vibrato
| \    Slide down
| h    Hammer-on
| /    Slide up

************************************
Suggest correction
comments
print report bad tab
4 comments total. Showing first comments.
0 reply
theoddmenout 2,184 Apr 14, 2005 08:00 PM

It seems pretty accurate, nice job

0 reply
woofwoofysback! 10 Nov 06, 2007 08:58 AM

a few mistakes,but still good. 5* from me.

0 reply
raftop 91 Jul 02, 2008 10:36 AM

Good, thanks ! But do you have any clue about what effects he uses ?

guest
You may want to rate the tab now too:
select rating
Wanna post a correction for this tab? Suggest correction