Oops, an error
Loading. Please wait.

Hear My Train A Comin Acoustic tab

version 3
version 3

Whole song

5,896 views 396 this week
no commentswrite comment
1 2 3 4 5
1 last vote to show rating
add to favorites
×
Save as Personal and add changes to this tab that will be seen only by you. Learn more ›
×
You can save this tab as Personal to edit and correct it or add notes. All changes will be seen only by you. Learn more »
launch autoscroll
font size
0
reset
how to read this tab
guitar tuner
backing track
0:00
0:00
edit
Autoscroll
slow
fast
+/-
esc
set tempo
stop
Jimi Hendrix - Hear My Train A Coming (Acoustic)
Tab By Aldo Alain

 C|-9p7---9p7---9p7---9p7---9p7---9--10-10-10--10--12-12-12-0-10-0-10-10------------------|
 G|-----8-----8-----8-----8-----8-----7--7--7b--7---x--x--x----9-0--9--9------------------|
D#|-------------------------------------------------9--9--9----9----9--9------------------|
A#|---------------------------------------------------------------------------------------|
 F|---------------------------------------------------------------------------------------|
 C|---------------------------------------------------------------------------------------|

|---------------------------------------------------------------------------------------|
|---------------------------------------------------------------------------------------|
|-7/9-9\7-------------------------------------------6-----------------------------------|
|---------9\7-5-7-5-----7-5h6-----------------5h7---7-7\------0--------0h2p0hp20h2p0h2--|
|-------------------7-7-------7--7--7-----5h7-------------0h2----0----------------------|
|--------------------------------0--0-5h7---------5----------------3-3------------------|

|---0-0---------------------------2-3-4----0--------------------------------------------|
|---0-0----------------3---3-3-3--0-0-0----0-0------------------------------------------|
|----------------------2---2-2-2--2-3-4----1-------------------1------------------------|
|-2-------------0------1-x-1-1-1-----------2-----0h2p0h2p0h2---2-2---0h2p0h2p0h2--------|
|-----------0-2---0-2----x-----2---------2---------------------2------------------------|
|-------0-3------------------------------0-----3-------------0-----3--------------------|

|---3b-0-3bp0-3bp0----0-----------0--------0-0------------0-----------------------------|
|------------------3b-------------0-3p0----0-0------------0--------------0--------------|
|---------------------------------1--------1-0-4-x-4----1-0-2~-----------0--------------|
|---------------------------0h2----------------5-x-5----2---2----0h2-0h2-0----0h2-------|
|-------------------------------2--------2-----5-x-5----2---2---------------------------|
|-0----------------------3b-----0--------0-----3-x-3--0---------------------3-----------|

|---3p0---0------------------------0------------------0-----0-0--0-0-0-0----------------|
|-------3------------------0-^--3b-0-----/3-----------0-------0--5---3------------------|
|-----------4\2-0----------1-^---------x----2b-2r-0---1-2/4--------------4\2p0----------|
|-----------------2----0h2-2-^---------x------------2--------------------------5p0-2----|
|-----------------2--------2-^---------x------------2-----------------------------------|
|-0---------------0--3-----0-^---------x------------0-----------------------------------|

|---0-----------0--0---0-0---2-2---2-2--2-^--2-2---2--------3--3-3-3--------------------|
|---0-0---0-----0--0---3-0---0-0---0-0--0-^--0-0---0-----2--2--2-2-2--/3----------------|
|---1-----0------------------2-----2-2--2-^--2-2---2--2--2--2--2-2-2-----2b-2r-0--------|
|-2-------0h2----------------1---1---------------1----2---------------------------------|
|-2------------------------2--------------------------0---------------------------------|
|-0-----3-----0------3------------------------------------------------------------------|

|---0-0-----0--0--0-------------0-------------x-2---2-------0-----3b---0----------------|
|---0-----5----5-/3-------------0-0-----------x-0---0-----0-0--------3------------------|
|-------4-----------3\2-0---------------------x-2---2-----2-0------------2h3p2----------|
|-2-----------------------2-0-2-------0h2p0h2-----1---1---1--------------------------5--|
|-2---------------------------2-------0h2p0h2-----2---2---2--------------------2-------7|
|-0---------------------------0-----3---------------------------0--------------0-3/5---0|

|-----------------------------------------0--0--0---------------------------------------|
|-----------------------------------------0--0--0-0----------------3p0-3-0---x--3-------|
|----------------0------------------------1--1----1-----------1--------------x----2b-2r-|
|----------------0---------------------2-----2----2----0h2----2--------------x----------|
|-7-x--7-7--5-7--5h7p5h7-x-7--x--------2-------------------------------------x----------|
|-x-x--x-x--x-x--x-------x-x--x-5~--3--0------------3b-----3b-----0----------x----------|

|-----0-0-----0--3--3-3-----2-2-0----0-0---------0-0---0-0------------------------------|
|-----0-0-----0--0--0-0-----0-0-0----0-0---------0-0---3-0------------------------------|
|-0---1---2/4----3------3\2---2------1-----------1------------x------2-2----2-----------|
|---2-----------------------------2--------0h2----------------x-1----1-1----1-x---------|
|---2-----------------------------2------------2------------2-----2------2----x---------|
|---0-----------------------------0------3-----0-----3--------------------------3-------|

|------------------------------0-0-----0--0-0---0-------------0-0-----------------------|
|---------------x-/3-----------0-0-----0--0-5\3---------------0-0-----------------------|
|-2-------------x----2b-2r-0---1---2/4------------3\2-0-------1-------------------------|
|-2--2-2--5b-2--x------------2--------------------------2-0-2--------0h2p0h2------------|
|-0--0-0--0--0--x------------2------------------------------2---------------------------|
|----------------------------0------------------------------0------3--------------------|
2
|----------------------------------------------------------------0-----4---3-3/4--------|
|-x---------------------------0----------------------------------0-----0-0---0-0--------|
|-x---------------------------2----------------------------------1-2/4---3---3/4--------|
|-x-x----------x--------------2---2-------------------0h2-0h2--2------------------------|
|---x-------7--x---7----5-----2-2-2-2-------------0h2----------2------------------------|
|---x-5-6/7------7-x--7---3---0-0---0----/5-/5-3---------------0------------------------|

|-------------3/4-4-4--3--3--------------------------------------0----------------------|
|-------------0-0-0-0--0--2-/3----------------3------------------0----------------------|
|-------------3/4-4-4--3--3----2b-2r-0----0-2---2brp0----2br-----1----------------------|
|---0h2p0h2-2--------------------------2--------------2------2-2---0h2-0h2-0h2-0h2-0----|
|-----------2--------------------------------------------------2---------------------2--|
|-3---------0--------------------------------------------------0------------------------|

|-------------0-0-------7--7--7\-------------0-0-----0-0--------------------------------|
|-------------0-0-------x--x--x--------------0-0-----0-0--------------------------------|
|-------------1---------7--7--7\-------------1---1-1-1----------------------------------|
|---------0h2-2---------------0----0h2p0h2---2---2-2-------0h2p0h2--2-2-----------------|
|-0h1-0---------------x--------------------2-----2-2----------------0-0-----------------|
|-------3---------2/7------------3---------0-------------3---------------3--------------|


|------------------------------------------------0-0---------0-0----0----0------0-0-----|
|------------------------------3-0---------------0-0---------0-0--0-0--0-0------0-0-----|
|----1--1--1-1--------2---2--2-----2b-2b-2rp0----1-----------1-1--2-0--2-0-2/4------2p0-|
|----2--2--2-2---0h2--2-2-2--2----------------2--2------0h2--2-2------------------------|
|----2--2-------------2-----------------------------------------------------------------|
|-0------------3------0-----------------------------3-----------------------------------|

|-------0-0----0---0-----0-0--------------0---0---0-----0---0--------0--0--0-0----------|
|-------0-0--3-0-3-0-----0-0------------3-0-3-0-0-0-----0---0--------0--0--0-0----------|
|-------1-1----------2b------2rp0-------------------3\2---4----------1--1--1-1----------|
|---0h2-2-2-------------------------0h2------------------------0h2-2-2--2--2-2-0h2p0h2--|
|------------------------------------------------------------------2--------------------|
|-3-------------------------------3---------------------------3----0--------------------|

|-0-0----0---0---0-0---------0-0--------0-^------0-0---0--0--0---0--0-0-----0-0---0-0---|
|-0-0----0---0---0-0---------0-0--------0-^------0-0---0--3--5---0--0-0-----0-2/3-3-5---|
|-1-1-2b---------1-----------1----------2-^----2-----4-------4---2------2/4-------------|
|-2-2------2-----------0h2-2--------0h2-2-^----2-----------------2----------------------|
|--------------2-----------2------------2-^----2-----------------2----------------------|
|--------------0-----3-----0------3-----------------------------------------------------|

|-0---------------0---0-0--0-0---0---0-0---0--0-0-0------0-^--2/4-4-4--4\3-3--3---------|
|-0---------------0---0-0--0-0---0---0-0---0--0-0-0--0---0-^--0-0-0-0--0-0-0--0-0-------|
|-2---------------2--------2---0-----------2--2-2-2--0---1-^--2/4---4--4\3------3-------|
|-2---2-----2-2---2----------------2-------2-----------2-2-^----------------------------|
|-2------2--2-2---0----------------2-------0-----------2--------------------------------|
|-0-3----0--0---3------------------0-----3-------------0--------------------------------|

|-3---2--2-2--0--0-0-----0--------------------------------------------------------------|
|-0-0-0--0-0--0----------0--------------------------------------------------------------|
|---3\2-------1------4\2-1--------------------------------------------------------------|
|-------------2----------2--------------------------------------------------------------|
|-------------2----------2--------------------------------------------------------------|
|-------------0----------0--------------------------------------------------------------|

            
            
Suggest correction
Creating personal tab
Creating personal tab
You can edit any tab online and save it as your Personal.

You can edit, replace or remove any tab part or add personal notes – all changes will be seen only by you.

Personal tabs can be accessed anytime from any device, even offline.
Learn more »
Give kudos to tab author, rate the tab!
1 2 3 4 5
comments
print report bad tab
guest
You may want to rate the tab now too:
select rating
Wanna post a correction for this tab? Suggest correction