Oops, an error
Loading. Please wait.

Hey Joe Bass Tab

version 1
version 1

Whole song

138,838 views 207 this week
12 commentsread comments
1 2 3 4 5
accurate
x 41
add to favorites
launch autoscroll
font size
0
reset
guitar tuner
Autoscroll
slow
fast
+/-
esc
set tempo
stop
Help us to improve Ultimate-Guitar.com Take our survey!
×
HEY JOE

Words and Music by
Billy Roberts
Bass performance
Noel Redding
Performance on

Are You Experienced?


[Verse 1]

       e e e q e e   e e e q e e   q q e s s+s s e   q q q q     
G|---|--------------|-------------|-----------------|-----------|
D|4:-|*---R---------|---R---------|-----R-----------|-----------|
A|4:-|*-3---3---2-4-|-5---5---5-6-|-7-7-----5-5---5-|-7-7-7-7/X-|
E|---|--------3-----|-------5-----|-------7-----7---|-----------|


[Verse 2]

  e e e q e e   e e e q e e   q q e s s+s s e   e e e e e e e e    
G|-------------|-------------|-----------------|-------------------|
D|---R---------|---R---------|-----R-----------|-------------------|
A|-3---3---2-4-|-5---5---5-6-|-7-7-----5-5---5-|-7-7-7-7-7-7-7-7/X-|
E|-------3-----|-------5-----|-------7-----7---|-------------------|

  e e e e e e e e   e e e e e e e e   q q e s s+s s e   e e e e e e e e  
G|-----------------|-----------------|-----------------|-----------------|
D|-----------------|-----------------|-----R-----------|-----------------|
A|-3---------2-3-4-|-5---------4-5-6-|-7-7-----5-5---5-|-7-7-7-7-7-7-7-7-|
E|---0-1-2-3-------|---2-3-4-5-------|-------7-----7---|-----------------|


(Fade out)

  e e e e e e e e   e e e e e e e e  
G|-----------------|-----------------|
D|-----------------|-----------------|
A|-3---------2-3-4-|-5---------4-5-6-|
E|---0-1-2-3-------|---2-3-4-5-------|


PERFORMANCE NOTES:


[Verse 1]
Nine repeats

[Verse 2]
Four repeats

(Fade out)



************************************

| /  slide up
| X  dead note
| R  release

************************************
Suggest correction
What's this?
You can suggest a correction to this tab. Community and Mods will review your correction and vote to approve or reject it.
comments
print report bad tab
12 comments total. Showing first comments.
0 reply
bass-stagg 94 wrote on October 30 2005, 09:30 am

good tab but isnt it....
G|--------------------------
D|--------5---5--------5---5
A|7-7-7--------7-7-7--------
E|------7---7--------7---7--
?

0 reply
bass-stagg 94 wrote on October 30 2005, 09:30 am

sorry i meant the 5's are on the A string

0 reply
buildabass124 34 wrote on April 9 2006, 12:20 pm

good tab, but the format is a little hard to read

guest
You may want to rate the tab now too:
select rating
Please do not post tabs as comments. Select "correction" instead!