Oops, an error
Loading. Please wait.

Hey Joe Bass Tab

version 2
version 2

Whole song

10,899 views 9 this week
no commentswrite comment
1 2 3 4 5
x 5
add to favorites
launch autoscroll
font size
0
reset
guitar tuner
Autoscroll
slow
fast
+/-
esc
set tempo
stop
Help us to improve Ultimate-Guitar.com Take our survey!
×
Author
Difficulty
intermediate
Hey Joe Bass Tab off The Jimi Hendrix Experience album.
Tabbed by Declan Henry

declanhenry@live.com


Standard tuning


Section 1

G  ]----------------------------------------------------------|
D  ]----------------------------------------------------------|
A  ]---3--33--345--55---567-7-7----5-5-7-7-7------------------|
E  ]--------33-------55-----------7-7---------0-2-3-----------|


Section 2

G  ]-----------------------------------------------------------|
D  ]-----------------------------------------------------------|
A  ]--3-----2345----4567-7-7---5-5-7-7-7-----------------------|
E  ]----0123----2345----------7-7--------0-2-3-----------------|




Enjoy it.
Suggest correction
comments
print report bad tab
guest
You may want to rate the tab now too:
select rating
Wanna post a correction for this tab? Suggest correction