Oops, an error
Loading. Please wait.

Hey Joe Tab

175,858 views 168 this week
8 commentsread comments
1 2 3 4 5
excellent!
x 44
add to favorites
launch autoscroll
font size
0
reset
how to read this tab
guitar tuner
Tab Pro tools
  • play this tab
  • loop segment
  • change instrument
  • show fretboard
  • metronome
×
Best way to learn
"Hey Joe"
Autoscroll
slow
fast
+/-
esc
set tempo
stop
Contributor
----------------------------------------------------------------

    JIMI HENDRIX - HEY JOE. Released as a single with STONE FREE 
                   as B side on 16th December 1966.

----------------------------------------------------------------

    Tabbed by:PJVillanueva







Hey Joe, where you goin' with that gun in your hand
Hey Joe, i said where you goin' with that gun in your hand, oh
I'm goin' down to shoot my old lady
You know i caught her messin' 'round with another man
Yeah, i'm goin' down to shoot my old lady
You know i caught her messin' 'round with another man
Huh! and that ain't too cool
Huh hey Joe, I heard you shot your mamma down     
You shot her down now
Hey Joe, I heard you shot your lady down
You shot her down in the groud yeah!
Yeah!
Yes, I did, I shot her
You know I caught her messin' round messin' round town
Huh, yes I did I shot her
You know I caught my old lady messin' 'round town
And I gave her the gun                                     
I shot her
Allright
Shoot her one more time again, baby!
Yeah!
Oh, dig it
Allright!
Hey Joe,
Where you gonna run to now, where gonna run to?
Hey Joe, I said
Where you gonna run to now, where you wanna go?
I'm goin' way down south
Way down to mexico way
Allright
I'm goin' way down south
Way down where I can be free
Ain't no one gonna find me
Ain't no hang-man gonna
He ain't gonna put a rope around me
You better believe it right now
I gotta go now
Hey, Joe
You better run on down
Goodbye everybody
Hey, Joe






     Standard tuning





e|-------- -------- -------- --------|-------- -------- 0---0--- --------|
B|-----------------------------------|------------------3/5-3------------|
G|-----------------------------------|-------------------------4\2P0-----|
D|-----------------------------------|------------------------------0H2--|
A|-----------------------------------|-----------------------------------|
E|-----------------------------------|-----------------------------------|






e|-------- 0------- -------- --------|-------- 0------- -------- --------|
B|---------0-------------------------|---------0------------7------7-----|
G|---------1-------------------------|---------1------------7------7-----|
D|----2-------------------5------4---|2--------2---2----7H9----7H9---9-\-|
A|----------------4/5-----5------4---|2--------2---2---------------------|
E|0------------0--------0------0-----|0--------0---0---------------------|




  00:08
  C                 G                 D                 A
e|-------- -------- ------3- --3-----|2---2-2- -------- -------- --------|   
B|---------1--------------3----3-----|3---3-3--3---3----2---2-2----2-2---|
G|---------0--------------4----4-----|2---2-2--2---2----2---2-2----2-2---|
D|---------2---2----5-----5--5-5-----|0--------2---4----2---2-2----2-2---|
A|3---3--------3----5--------5-------|-------------0----0---0-0----0-0---|
E|------------------3--------3---5/7-|-----------------------------------|  
             Hey      Joe,                             where with that
                                                        you goin'
e|-------- 3------- -------- 3-------|-------- 5------- -------- 5-------|
B|---------5-----------------3-------|---------7-----------------5-------|
G|---------5-----------------4-------|---------7-----------------6-------|
D|---------5-----------------5-------|---------7-----------------7-------|
A|---------3-----------------5-------|---------5-----------------7-------|
E|---------------------------3-------|---------------------------5-------|





  E
e|-------- -------- -------- --------|0---0-0- 0---0-0- 0---0-0- --0-0---|
B|-----------------------------------|0---0-0--0---0-0--0---0-0----0-0---|
G|1--------1-------------------------|1---1-1--1---1-1--1---1-1----1-1---|
D|2--------2--------0-----0------0---|2---2-2--2---2-2--2---2-2----2-2---|
A|2--------2--------0---2------2-----|2---2-2--2---2-2--2---2-2----2-2---|
E|0--------0-------------------------|0---0-0--0---0-0--0---0-0----0-0---|   
   gun     hand
     in your
e|-------- 0------- -------- --------|-------- 0------- -------- 0-------|
B|---------0-------------------------|---------0-----------------0-------|
G|---------1-------------------------|---------1-----------------1-------|
D|---------2--------------0------0---|2--------2-----------------2-------|
A|---------2------------2------2-----|---------2-----------------2-------|
E|---------0-------------------------|---------0-----------------0-------|






e|-------- -------- 3-----5- --3-----|2---2--- -------- -------- --------|
B|---------1---1-1--3-----3----3-3---|3---3----3---3-3--2-----2----2-2---|
G|---------0---0-0--4-----4----4-4---|2---2----2---2-2--2-----2----2-2---|
D|---------2---2-2--5------------5---|0--------2---4----2-----2----2-2---|
A|3---3--------3----5------------5---|------------------0-----0----0-0---|
E|------------------3------------3---|-----------------------------------|
             Hey      Joe,                       I said where with that
                                                         you goin'
e|-------- 3------- -------- 3-------|-------- 5------- -------- 5-------|
B|---------5-----------------3-------|---------7-----------------5-------|
G|---------5-----------------4-------|---------7-----------------6-------|
D|---------5-----------------5-------|---------7-----------------7-------|
A|---------3-----------------5-------|5--------5-----------------7-------|
E|---------------------------3---5/7-|---------------------------5-------|






e|0------- 0------- 0------- --------|0------- 0------- ----0-0- --0-----|
B|0--------0--------0----------------|0--------0-----0--0---3-5----3-----|
G|1--------1--------1-----0------0---|1--------1--------2/4----------4---|
D|2--------2--------2-----0------0---|2--------2-------------------------|
A|2--------2--------2---2------2-----|2--------2-------------------------|
E|0--------0--------0----------------|0--------0-------------------------|
   gun     hand              Oh
     in your
e|-------- 0------- -------- --------|-------- 0------- -------- --------|
B|---------0-------------------------|---------0-------------------------|
G|---------1-------------------------|---------1-------------------------|
D|---------2-------------------------|---------2-------------------------|
A|---------2--------------5------5---|7-~------2-------------------------|
E|---------0------------7------7-----|---------0-------------------------|




  00:31

e|-------- -------- 3-----5- --5-3-5-|-------- 2------- ------7- --7-5---|
B|---------1---1----3---3-3----3-3-3-|----3----3---3----5---5-5----5-5---|
G|---------0---0----4---4-4----4-4-4-|----2--------2----6---6-6----6-6---|
D|---------2---2----5---5------------|2/4---------------7---7--------7---|
A|3---3--------3----5---5------------|------------------7---7--------7---|
E|------------------3---3------------|------------------5---5--------5---|
           I'm      shoot   lady                You I  her messin'with  
            goin'down  my old                    know caught'round another
                  to
e|-------- 3------- -------- 3-------|-------- 5------- -------- 5-------|
B|---------5-----------------3-------|---------7-----------------5-------|
G|---------5-----------------4-------|---------7-----------------6-------|
D|---------5-----------------5-------|---------7-----------------7-------|
A|---------3-----------------5-------|5--------5-----------------7-------|
E|------------------3--------3---3/7-|---------------------------5-------|






e|0------- 0---0--- 0------- --------|0---0--- 0---0--- 0---0--- --0-0---|
B|0--------0---0----0----------------|0---0----0---0----0---0------0-0---|
G|1--------1---1----1-----0------0---|1---1----1---1----0---0------0-1---|
D|2--------2---2----2-----0------0---|2---2----2---2----0---0------0-2---|
A|2--------2---2----2---2------2-----|2---2----2---2----0---0------0-2---|
E|0--------0---0----0----------------|0---0----0---0-----------------0---|
  man                                     Yeah
e|-------- 0------- -------- --------|-------- -------- -------- --------|
B|---------0-------------------------|-----------------------------------|
G|---------1-------------------------|-----------------------------------|
D|---------2---------------------5B--|-----------------------------------|
A|---------2--------------7----------|7-~-------------------5----7-5-----|
E|---------0------------5------5-----|-------------------------------7---|  






e|-------- -------- 3-----5- --3-3-3-|-------- -------- 5---5-5- --5-5---|
B|---------1---1----3-----3----3-3-3-|5-7-7-5--7---5----5---5-5----5-5---|
G|---------0---0----4-----4----4-4-4-|5-7-7-5--7---5----6---6-6----6-6---|
D|---------2---2----5------------5---|5-7-7-5--7---5----7---7-7----7-7---|
A|3---3--------3----5------------5---|------------------7---7-7----7-7---|
E|------------------3------------3---|------------------5---5-5----5-5---|
        I'm         shoot  lady                You  I  her messin'with  
           goin'down  my old                    know caught 'round another
                  to
e|-------- 3------- -------- 3-------|-------- 5------- -------- 5-------|
B|---------5-----------------3-------|---------7-----------------5-------|
G|---------5-----------------4-------|---------7-----------------6-------|
D|---------5-----------------5-------|---------7-----------------7-------|
A|---------3-----------------5-------|---------5-----------------7-------|
E|---------------------------3-------|---------------------------5-------|






e|0------- 0------- 0---0-0- --0-0---|0---0--- 0------- 0-0-0--- 0---0---|
B|0--------0--------0---0-0----0-0---|0---0----0--------0-0-0----0---0---|
G|1--------1--------1---1-1----1-1---|1---1----1--------1-1-1----1---1---|
D|2--------2--------2---2-2----2-2---|2---2----2---2----2-2-2----2---2---|
A|2--------2--------2---2-2----2-2---|2---2----2---2----2-2-2----2---2---|
E|0--------0--------0---0-0----0-0---|0---0----0---0----0-0-0----0---0---|
      man             Huh!     and ain't  too  cool
                                 that
e|-------- 0------- -------- 0-------|-------- 0------- -------- 0-------|
B|---------0-----------------0-------|---------0-----------------0-------|
G|---------1-----------------1-------|---------1-----------------1-------|
D|---------2-----------------2-------|---------2-----------------2-------|
A|---------2-----------------2-------|---------2-----------------2-------|
E|---------0-----------------0-------|---------0-----------------0-------|




  00:54

e|----0--- 0------- -------- --------|-------- -------- -------- --------|
B|----1----1--------3---3----3-3-----|----3----3---3-3--2---2----2---2---|
G|----0----0--------4---4----4-4-----|2---2----2---2-2--2---2----2---2---|
D|2---2----2---2----5---5----5-5-----|0--------2---4----2---2----2---2---|
A|3---3----3---3----5---5----5-5-----|------------------0---0----0---0---|
E|------------------3---3----3-3-5/7-|-----------------------------------|
             Huh hey  Joe                                   I heard   your 
                                                                you shot
e|-------- 3------- -------- 3-------|-------- 5------- -------- 5-------|
B|---------5-----------------3-------|---------7-----------------5-------|
G|---------5-----------------4-------|---------7-----------------6-------|
D|---------5-----------------5-------|---------7-----------------7-------|
A|---------3-----------------5-------|---------5-----------------7-------|
E|---------------------------3-------|---------------------------5-------|






e|0---0--- 0---0--- 0---0-0- --------|-------- -------- -------- --------|
B|0---0----0---0----0---0-0----9-9-9-|9P7-7-7--7H9-9-9--9---9H10---9-----|
G|1---1----1---1----1---1-1----9-9-9-|9P7-7-7--7H9-9-9--9---9------9-----|
D|2---2----2---2----2---2-2----9-9-9-|9P7-7-7--7H9-9-9--9---9H11---9-----|
A|2---2----2---2----2---2-2----------|-----------------------------------|
E|0---0----0---0----0---0-0----------|-----------------------------------|
  mamma down, You  down now
               shot her
e|-------- 0------- -------- --------|-------- 0------- -------- 0-------|
B|---------0-------------------------|---------0-----------------0-------|
G|---------1-------------------------|---------1-----------------1-------|
D|---------2-------------------------|---------2-----------------2-------|
A|---------2--------------5------5---|---------2-----------------2-------|
E|---------0------------7------7-----|---------0-----------------0-------|  






e|-------- -------- -------- --------|2---2--- -------- -------- --------|
B|---------1--------3---3-3----3-3-3-|3---3----3---3----2---2-3----2-2---|
G|---------0--------4---4-4----4-4-4-|2---2----2---2----2---2-2----2-2---|
D|---------2---2----5---5-5----5-5-5-|0---0----0---0----2---2-2----2-2---|
A|3---3----3---3----5---5-5----5-5-5-|---------------2--4----------------|
E|------------------3---3-3----3-3-3-|-----------------------------------|
             Hey      Joe                                  I heard   your 
                                                               you shot
e|-------- 3------- -------- 3-------|-------- 5------- -------- 5-------|
B|---------5-----------------3-------|---------7-----------------5-------|
G|---------5-----------------4-------|---------7-----------------6-------|
D|---------5-----------------5-------|---------7-----------------7-------|
A|---------3-----------------5-------|5--------5-----------------7-------|
E|---------------------------3---3/7-|---------------------------5-------|    






e|0------- 0------- 0---0-0- --0-0---2/4--4--- 4---0--- --0-0--- 0-------|
B|0--------0--------0---0-0----0-0---0----0----0---0------0-0----0-------|
G|1--------1--------1---1-1----1-1---2/4--4----4---1------1-1----1-------|
D|2--------2--------2---2-2----2-2---|-------------2------2-2----2-------|
A|2--------2--------2---2-2----2-2---|-------------2------2-2----2-------|
E|0--------0--------0---0-0----0-0---|-------------0------0-0----0-------|
  lady down, you  down  groung,                               yeah!
             shot  on the
               her
e|-------- 0------- -------- 0-------|-------- -------- -------- --------|
B|---------0-----------------0-------|-----------------------------------|
G|---------1-----------------1-------|----2B3P2-~------------------------|  
D|---------2-----------------2-------|----------------------0H2----------|
A|---------2-----------------2-------|-----------------------------------|
E|---------0-----------------0-------|-----------------------------------|




  01:17

e|-------- -------- 3-----5- --3-----|2---2--- 2---2-2- -------- --------|
B|---------1---1----3-----3----3-3---|3---3----3---3-3--2---2-3----2-2-2-|
G|---------0---0----4-----4----4-4---|2---2----2---2-2--2---2-2----2-2-2-|
D|---------2---2----5------------5---|0---0----0---0-0--2---2-2----2-2-2-|
A|3---3----3---3----5------------5---|------------------0---0-0----0-0-0-|
E|------------------3------------3---|-----------------------------------|
             Yes, I did, I shot her                 You know  her messin' 
                                                          I caught   round
e|-------- 3------- -------- 3-------|-------- 5------- -------- 5-------|
B|---------5-----------------3-------|---------7-----------------5-------|
G|---------5-----------------4-------|---------7-----------------6-------|
D|---------5-----------------5-------|---------7-----------------7-------|
A|3---3----3---3-------------5-------|5--------5-----------------7-------|
E|------------------3--------3---3/7-|---------------------------5-------|






e|0------- 0---0--- 0------- --7-----|0---0--- 0---0--- 0---0--- 0---0---|
B|0--------0---0----0----------8B----|0---0----0---0----0---0----0---0---|
G|1--------1---1--------7-9------9---|1---1----1---1----1---1----1---1---|
D|2--------2---2------9------------9-|2---2----2---2----2---2----2---2---|
A|2--------2---2---------------------|2---2----2---2----2---2----2---2---|
E|0--------0---0---------------------|0---0----0---0----0---0----0---0---|    
  messin'  town
      round
e|-------- 0------- ----7--- --------|-------- 0------- -------- --------|
B|---------0------------8B9----------|---------0-------------------------|
G|---------1-----------------9-\-----|---------1-------------------------|
D|---------2-------------------------|---------2------------2----4---0---|
A|---------2-------------------------|---------2-------------------------|
E|---------0-------------------------|---------0-------------------------|






e|-------- -------- 3---5-5- --5-5---|2---2--- 2-2-2--- -------- --------|
B|---------1--------3---3-3----3-3---|3---3----3-3-3----2---2-2----2-2---|
G|---------0---0----4---4-4----4-4---|2---2----4-2-2----2---2-2----2-2---|
D|---------2---2----5----------------|0---0----0-0-4----2---2-2----2-2---|
A|3---3----3---3----5----------------|------------------0---0-0----0-0---|
E|------------------3----------------|-----------------------------------|
             Yes, I did, I shot her              You         lady messin' 
                                                  know  my old       round
                                                   I caught 
e|-------- 3------- -------- 3-------|-------- 5------- -------- 5-------|
B|---------5-----------------3-------|---------7-----------------5-------|
G|---------5-----------------4-------|---------7-----------------6-------|
D|---------5-----------------5-------|---------7-----------------7-------|
A|3---3----3-----------------5-------|5--------5-----------------7-------|
E|------------------3--------3---3/7-|------------------5--------5-------|






e|0------- 0---0--- 0-0-0-0- --0-0-0-/4-4-4-4- 4-4-4-4- 4-4-4-4- 4-4-4---|
B|0--------0---0----0-0-0-0----0-0-0-|0-0-0-0--0-0-0-0--0-0-0-0--0-0-0---|
G|1--------1---1----1-1-1-1----1-1-1-/4-4-4-4--4-4-4-4--4-4-4-4--4-4-4---|
D|2--------2---2----2-2-2-2----2-2-2-|-----------------------------------|
A|2--------2---2----2-2-2-2----2-2-2-|-----------------------------------|
E|0--------0---0----0-0-0-0----0-0-0-|-----------------------------------|  
  town                 And I gave her gun                   I    shot her
                                    the
e|-------- -------- -------- --------|-------- -------- -------- --------|
B|-----------------------------------|-----------------------------------|
G|-----------------------------------|-----------------------------------|
D|-----------------------------------|-----------------------------------|
A|2----------------------------------|-----------------------------------|
E|0----------------------------------|-----------------------------------| 




  01:40

e|-------- -------- 3---3--- 5-----3-|2---2--- 2---2--- -------- --------|
B|1---1----1---1----3---3----3-----3-|3---3----3---3----2---2-2----2-2---|
G|0---0----0---0----4---4----4-----4-|2---2----2---2----2---2-2----2-2---|
D|2---2----2---2----5---5----x-------|0---0----2---4----2---2-2----2-2---|
A|3---3----3---3----5---5----5-------|------------------0---0-0----0-0---|
E|------------------3---3----3-------|-----------------------------------|

e|-------- 12------ -------- --------|-------- 1212---- -------- --------|
B|15B17-~---1512---------------------|15B17-~----1512-----12-------------|
G|-------------14B16R14P12-12-~------|---------------14B16--14---121412B-|
D|-----------------------14----------|-----------------------------------|
A|-----------------------------------|-----------------------------------|
E|-----------------------------------|-----------------------------------|






e|0---0--- 0-----0- 0---0--- 0-0-0-0-|0---0--- 0---0--- 0---0-0- --0-0---|
B|0---0----0-----0--0---0----0-0-0-0-|0---0----0---0----0---0-0----0-0---|
G|1---1----1-----1--1---1----1-1-1-1-|1---1----1---1----1---1-1----1-1---|
D|2---2----2-----2--2---2----2-2-2-2-|2---2----2---2----2---2-2----2-2---|
A|2---2----2-----2--2---2----2-2-2-2-|2---2----2---2----2---2-2----2-2---|
E|0---0----0-----0--0---0----0-0-0-0-|0---0----0---0----0---0-0----0-0---|   
                        Allright              Shoot one time       baby!
                                                her  more   again,        
e|-------- -------- -------- --------|-------- -------- -------- --------|
B|---------------------------12------|---------15B17-~------15B17-~------|
G|---------12--12-\----------12B-----|-----------------------------------|
D|14-~-------14---------1214-----14-\|-----------------------------------|
A|------------------7/14-------------|-----------------------------------|
E|-----------------------------------|-----------------------------------|






e|-------- -------- 3---3-5- --5-3---|2---3--- 2---2-2- -------- --------|
B|1---1----1---1-1--3---3-3----3-3---|3---3----3---3-3--2---2----2---2-2-|
G|0---0----0---0-0--4---4-4----4-4---|2---2----2---2-2--2---2----2---2-2-|
D|2---2----2---2-2--5---5--------5---|0---0----2---4-4--2---2----2---2-2-|
A|3---3----3---3-3--5---5--------5---|------------------0---0----0---0-0-|
E|------------------3---3--------3---|-----------------------------------|

e|1212---- --12---- -------- --------|-----1215B17R15B~12------- 12------|
B|121512-----1215---12---------------|----12------------------15--15-----|
G|------14B16---14B-------14-12-~----|-14B16-------------14B16-----14B16-|
D|--------------------1214-----------|-----------------------------------|
A|-----------------------------------|-----------------------------------|
E|-----------------------------------|-----------------------------------|






e|0---0--- 0---0--- 0---0-0- --0-0---|0-0-0--- 0-0-0--- 0-0-0-0- 0-0-0---|
B|0---0----0---0----0---0-0----0-0---|0-0-0----0-0-0----0-0-0-0--0-0-0---|
G|1---1----1---1----1---1-1----1-1---|1-1-1----1-1-1----1-1-1-1--1-1-1---|
D|2---2----2---2----2---2-2----2-2---|2-2-2----2-2-2----2-2-2-2--2-2-2---|
A|2---2----2---2----2---2-2----2-2---|2-2-2----2-2-2----2-2-2-2--2-2-2---|
E|0---0----0---0----0---0-0----0-0---|0-0-0----0-0-0----0-0-0-0--0-0-0---|
                        Yeah!                  Oh,      dig it!
e|-------- -------- -------- --------|-------- -------- -------- --------|
B|-----------------------------------|12---------------------------------|
G|12B-~--------------------------9-11|12B-~------------------------------|
D|------------------14-\-----5/11----|------14\--------------------------|
A|-----------------------------------|-----------------/14-\-------------|
E|-----------------------------------|-----------------------------------|




   02:03

e|-------- -------- -------- --------|-------- -------- -------- --------|
B|-----------------------------------|-----------------------------------|
G|-----------------------------------|-----------------------------------|
D|-----------------------------------|-----------------------------------|
A|3---------------------2----3---4---|5---------------------4----5---6---|
E|----0----1----2---3----------------|----2----3---4----5----------------|
                        Ah!               Ah!
e|-------- 3------- -------- 3-------|-------- 5------- -------- 5-------|
B|---------5-----------------3-------|---------7-----------------5-------|
G|---------5-----------------4-------|---------7-----------------6-------|
D|---------5-----------------5-------|---------7-----------------7-------|
A|---------3-----------------5-------|---------5-----------------7-------|
E|---------------------------3-------|---------------------------5-------|






e|-------- -------- -------- --------|-------- -------- -------- --------|
B|9---9----9P7-7-7----7-7---/9---9---|7---9----9P7-7-7--7H9-9----9---9---|
G|9---9----9P7-7-7----7-7---/9---9---|7---9----9P7-7-7--7H9-9----9---9---|
D|9---9----9P7-7-7----7-7---/9---9---|7---9----9P7-7-7--7H9-9----9---9---|
A|-----------------------------------|-----------------------------------|
E|-----------------------------------|-----------------------------------|   
                                                 Allright!
e|-------- -------- -------- --------|-------- -------- -------- --------|
B|---------9\7-------------/-9-------|----------------------9------------|
G|---------9\7-~-----------/-9-------|----------------------9------------|
D|---------9\7-------------/-9-------|----------------------9------------|
A|-----------------------------------|-----------------------------------|
E|-----------------------------------|-----------------------------------|   






e|8---8-8- 8---8--- 7---7-7- 7-7-----|5---5-5- 5---5--- 5---5-5- 7-5-5---|
B|8---8-8--8---8----8---8-8--8-8-----|7---7-7--7---7----5---5-5--5-5-5---|
G|9---9-9--9---9----7---7-7--7-7-----|7---7-7--7---7----6---6-6--6-6-6---|
D10--1010-10--10----9---9-9--9-9-----|7---7-7--7---7----7---7-7--x---7---|
A10--1010-10--10---10--1010-1010-----|5---5-5--5---5----7---7-7--7---7---|
E|8---8-8--8---8---------------------|------------------5---5-5--5---5---|
             Hey,     Joe                                Uh Where gonna 
                                                               you    run
e|3------- 3------- -------- 3-------|-------- 5------- -------- 5-------|
B|5--------5-----------------3-------|---------7-----------------5-------|
G|5--------5-----------------4-------|---------7-----------------6-------|
D|5--------5-----------------5-------|---------7-----------------7-------|
A|3--------3-----------------5-------|5--------5-----------------7-------|
E|---------------------------3---3/7-|---------------------------5-------|






e|0---0-0- 0---0-0- 0-0-0--- 0---0-0-|-------- 0---0-0- 0-0-0-0- 0-0-0---|
B|5---5-3--5---5-3--5-3-0----5---3-0-|---------0---0-3--5-5-3-5--5-5-3---|
G|-----------------------------------|-----------------------------------|
D|-----------------------------------|-----------------------------------|
A|-----------------------------------|-----------------------------------|
E|-----------------------------------|-----------------------------------|   
    to  now, where  run to?
               gonna    
e|-------- 0------- -------- 0-------|-------- -------- -------- 0-------|
B|---------0-----------------0-------|---------------HPHPH-------0-------|
G|---------1-----------------1-------|--------------797979-------1-------|
D|---------2-----------------2-------|---------7-B-9-------------2-------|
A|---------2-----------------2-------|---------------------------2-------|
E|---------0-----------------0-------|0--------------------------0-------|






e|8---8--- 8---8-8- 3---3-5- 5-3-----|5---5-5- 5-5-5-5- 5---5-5- 5-5-5---|
B|8---8----8---8-8--3---3-3--3-3-----|7---7-7--7-7-7-7--5---5-5--5-5-5---|
G|9---9----9---9-9--4---4-4--4-4-----|7---7-7--7-7-7-7--6---6-6--6-6-6---|
D10--10---10--1010--5---5------------|7---7-7--7-7-7-7--7---7-7--7-7-7---|
A10--10---10--1010--5---5------------|5---5-5--5-5-5-5--7---7-7--7-7-7---|
E|8---8----8---8-8--3---3------------|------------------5---5-5--5-5-5---| 
             Hey,     Joe,     I said                      Where   gonna 
                                                              you      run  
e|-------- 3------- -------- 3-------|-------- 5------- -------- 5-------|
B|---------5-----------------3-------|---------7-----------------5-------|
G|---------5-----------------4-------|---------7-----------------6-------|
D|---------5-----------------5-------|---------7-----------------7-------|
A|---------3-----------------5-------|5--------5-----------------7-------|
E|---------------------------3---3/7-|---------------------------5-------|




 

e|0---0--- 0---0--- 0---0--- 0---0---|-------- 9------- -------- 9-------|
B|0---0----0---0----0---0----0---0---|9--12---1012-9--------9-1210-12-9--|
G|1---1----1---1----1---1----1---1---|9--12----912-9--------9-12-9-12-9--|
D|2---2----2---2----2---2----2---2---|9--12-----12-9--------9-12---12-9--|
A|2---2----2---2----2---2----2---2---|-----------------------------------|
E|0---0----0---0----0---0----0---0---|-----------------------------------|  
    to  now   where you..    Where    go?                          where's 
                               you wanna                               it?
e|-------- 0------- 0------- --------|-------- ----10-- -------- --------|
B|---------0--------0------------HPHPH-------------11B-\-----------------|
G|---------1--------1-----------797979-----------------------------------|
D|---------2--------2--------7B9-----|-----------------------------------|
A|---------2--------2----------------|-----------------------------------|
E|---------0--------0----------------|-----------------------------------|






e|8---8--- 8-8-8--- 3---5--- 3---3---|2-2-2-2- 2---2-2- -------- --------|
B|8---8----8-8-8----3---3----3---3---|3-3-3-3--3---3-3--2---2----2-------|
G|9---9----9-9-9----4---4----4---4---|4-4-4-4--4P2-2-2--2---2----2-------|
D10--10---101010----5---x----5---5---|0-0-0-0--0---4-2--2---2----2-------|
A10--10---101010----5---5----5---5---|------------------0---0----4H5/7---|
E|8---8----8-8-8----3---3----3---3---|-----------------------------------|
            I'm  way    south                              way down    to
              goin' down   
e|-------- 3---3--- 3------- 3-------|-------- 5------- -------- 5-------|
B|---------5---5----3--------3-------|---------7-----------------5-------|
G|---------5---5----4--------4-------|---------7-----------------6-------|
D|---------5---5----5--------5-------|---------7-----------------7-------|
A|---------3---3----5--------5-------|5---5----5-----------------7-------|
E|------------------3--------3---3/7-|---------------------------5-------|






e|4---4--- 4---4-4- --4-4--- 4-4-4-4-|4-----4- 4-----4- 4-----4- 4---0---|
B|5---5----5---5-5----5-5----5-5-5-5-|5-----5--5-----5--5-----5--5---0---|
G|4---4----4---4-4----4-4----4-4-4-4-|4-----4--4-----4--4-----4--4---1---|
D|6---6----6---6-6----6-6----6-6-6-6-|6--/6-------/6-------/6--------2---|
A|-----------------------------------|-------------------------------2---|
E|-----------------------------------|-------------------------------0---|  
  Mexico   way                          Allright!
e|-------- 0------- -------- --------|-------- 0------- -------- 0-------|
B|---------0-------------------------|---------0-----------------0-------|
G|---------1---------------------HPHPH---------1-----------------1-------|
D|---------2--------------------242424---------2-----------------2-------|
A|---------2-----------------0H2-----|---------2-----------------2-------|
E|---------0-------------------------|---------0-----------------0-------|






e|-------- -------- -------- --------|-------- -------- -------- --------|
B|-----------------------------------|-----------------------------------|
G|-----------------------------------|-----------------------------------|
D|-----------------------------------|-----------------------------------|
A|3---------------------2----3---4---|5---------------------4----5---6---|
E|----0----1----2---3----------------|----2----3---4----5----------------|
        I'm goin'       south                             way down   where
               way down
e|-------- 3------- -------- 3-------|-------- -------- -------- 5-------|
B|---------5-----------------3-------|---------------------------5-------|
G|---------5-----------------4-------|---------------------------6-------|
D|---------5-----------------5-------|---------------------------7-------|
A|---------3-----------------5-------|5H7P5----------------------7-------|
E|---------------------------3---3/7-|---------------------------5-------|






e|-------- -------- -------- --------|-------- -------- -------- --------|
B|9---9-9--9P7-7-7--7H9-9-9--9---9---|9H1010---12----1010P9-9H1010P9-9---|
G|9---9-9--9P7-7-7--7H9-9-9--9---9---|9----9----9-----9-9---9----9-9-9---|
D|9---9-9--9P7-7-7--7H9-9-9--9---9---|9H1111---12----1111P9-9H1111P9-9---|
A|-----------------------------------|-----------------------------------|
E|-----------------------------------|-----------------------------------|
  I can be free              Ain't      gonna   me
                                no one     find
e|-------- 0------- -------- 0-------|-------- 0------- -------- --------|
B|---------0-----------------0-------|---------0-------------------------|
G|---------1-----------------1-------|---------1-------------------------|
D|---------2-----------------2-------|---------2----------B3R2P0---------|
A|---------2-----------------2-------|---------2-----------------2---0H2-|
E|---------0-----------------0-------|---------0-------------------------|






e|-------- 8-----8- 3---3-5- 5-3-3-3-|2---2--- -------- -------- --------|
B|---------8-----8--3---3-3--3-3-5-3-|3---3----3---3----2---2-2----2-2---|
G|---------9-----9--4---4-4--4-4-4-4-|2---2----2---2----2---2-2----2-2---|
D|--------10----10--5----------------|0---0----2---4----2---2-2----2-2---|
A|--------10----10--5----------------|------------------0---0-0----0-0---|
E|8---8----8-----8--3----------------|-----------------------------------|
           Ain't no hang-man gonna         He ain't put rope  around 
                                                gonna a
e|-------- 3------- -------- 3-------|-------- 5------- -------- 5-------|
B|---------5-----------------3-------|---------7-----------------5-------|
G|---------5-----------------4-------|---------7-----------------6-------|
D|---------5-----------------5-------|---------7-----------------7-------|
A|3--------3---3-------------5-------|5--------5-----------------7-------|
E|------------------3--------3---3/7-|---------------------------5-------|






e|0------- 0------- 0---0-0- --0-0-0-|0-0-0-0- 0---0--- 0---0--- 0-0-0---|
B|0--------0--------0---0-0----0-0-0-|0-0-0-0--0---0----0---0----0-0-0---|
G|1--------1--------1---1-1----1-1-1-|1-1-1-1--1---1----1---1----1-1-1---|
D|2--------2--------2---2-2----2-2-2-|2-2-2-2--2---2----2---2----2-2-2---|
A|2--------2--------2---2-2----2-2-2-|2-2-2-2--2---2----2---2----2-2-2---|
E|0--------0--------0---0-0----0-0-0-|0-0-0-0--0---0----0---0----0-0-0---|
  me          You better  it   right             I gotta  now
                   believe        now                 go
e|-------- 0------- -------- 0-------|-------- -------- -------- --------|
B|---------0-----------------0-------|------------------15B17\-----------|
G|---------1-----------------1-------|-----------------------------------|
D|---------2-----------------2-------|---------0H2-----------------------|
A|---------2-----------------2-------|-----------------------------------|
E|---------0-----------------0-------|-----------------------------------|






e|-------- -------- -------- --------|-------- -------- -------- --------|
B|-----------------------------------|-----------------------------------|
G|-----------------------------------|-----------------------------------|
D|-----------------------------------|-----------------------------------|
A|3---------------------2----3---4---|5---------------------4----5---6---|
E|----0----1----2---3----------------|----2----3---4----5----------------|
    Hey,              Joe                        You better   on     down
                                                        run
e|-------- 8------- -------- 3-------|-------- 5------- -------- 5-------|
B|---------8-----------------3-------|---------7-----------------5-------|
G|---------9-----------------4-------|---------7-----------------6-------|
D|--------10-----------------5-------|---------7-----------------7-------|
A|--------10-----------------5-------|5--------5-----------------7-------|
E|---------0-----------------3-------|---------------------------5-------|

  ..................................Fade.................................




e|0------- 0-----0-/4---4-4- 4-0-0---|0------- 0-----0- 0-0-0--- 0---0---|
B|0--------0-----0--0---0-0--0-0-0---|0--------0-----0--0-0-0----0---0---|
G|1--------1-----1-/4---4-4--4-1-1---|1--------1-----1--1-1-2B4--2P1-1---|
D|2--------2-------------------------|2--------2-----2--2------------2---|
A|2--------2-------------------------|2--------2-----2--2----------------|
E|0--------0-------------------------|0--------0-----0--0----------------|
                   Goodbye everybody               Ow!
e|-------- 0------- -------- 0-------|-------- 0------- -------- 0-------|
B|---------0-----------------0-------|---------0-----------------0-------|
G|---------1-----------------1-------|---------1-----------------1-------|
D|---------2-----------------2-------|---------2-----------------2-------|
A|---------2-----------------2-------|---------2-----------------2-------|
E|---------0--------0---0----0-------|---------0-----------------0-------|

  .......................................................................




e|-------- -------- -------- --------|-------- -------- -------- --------|
B|-----------------------------------|-----------------------------------|
G|-----------------------------------|-----------------------------------|
D|-----------------------------------|-----------------------------------|
A|3---------------------2----3---4---|5---------------------4----5---6---|
E|----0----1----2---3----------------|----2----3---4----5----------------|
      Hey,                Joe
e|-------- 3------- -------- 3-------|-------- 5------- -------- 5-------|
B|---------5-----------------3-------|---------7-----------------5-------|
G|---------5-----------------4-------|---------7-----------------6-------|
D|---------5-----------------5-------|---------7-----------------7-------|
A|---------3-----------------5-------|---------5-----------------7-------|
E|---------------------------3-------|---------------------------5-------|
 
  .......................................................................










        B  Bend
        R  Release
        /  Slide up
        \  Slide down
        H  Hammer-on
        P  Pull-off
        ~  Vibrato
        +  Harmonic
        x  Mute note
        .  Play note like a dot in standard notation
        ^  Ties two notes together
        (.  Pause
     



comments
print report bad tab
8 comments total. Showing first comments.
+2 reply
0012@theCIA wrote on May 10 2006, 10:05 pm

awesome!

+2 reply
ls311 wrote on April 15 2007, 09:36 pm

beautiful job. 5 stars from me.

+3 reply
Skirvy wrote on June 8 2008, 02:55 pm

Groovy baby

I want to post or [tab]
guest
You may want to rate the tab now too:
select rating
Please do not post tabs as comments. Select "correction" instead!