Oops, an error
Loading. Please wait.

Highway Chile Bass Tab

version 2
version 2

Whole song

Interactive

2,902 views 3 this week
no commentswrite comment
1 2 3 4 5
3 more votes to show rating
add to favorites
launch autoscroll
font size
0
reset
guitar tuner
Autoscroll
slow
fast
+/-
esc
set tempo
stop
Help us to improve Ultimate-Guitar.com Take our survey!
×
Author
Difficulty
intermediate
I couldn't find a good tab for this song, so I had to learn by ear. While at this, 
i decided to make a tab, so here it is. 


ORDER:
Intro    1x
Verse 1  4x
Verse 2  4x
Verse 1  2x
Bridge   1x
Chorus   1x
Verse 1  4x
Verse 2  4x
Verse 1  2x
Bridge   1x
Intro    1x
Verse 1(guitar solo)8x
Verse 2  2x
Verse 1  2x
Bridge   1x
Chorus   1x
Outro (until fade out)

Intro
G|------------------------------------------------------|
D|------------------------------------------------------|
A|-------------------10-/99-9-7------10-/99-9-7-----057-|
E|---0-12-----0-12--------------0-12------------0-12----|


Chorus
G|--------------------------|
D|--------------------------|
A|----------------057-------|
E|---0-12-----0-12----------|



Verse 1                Verse 2            Bridge
G|--------------------|---------------|-------------------------------------|
D|--------------------|---------8-----|-------------------------------------|
A|-7-75-057-----------|-----8h10-108--|-5-5-5-5-5-5-5-5-7-7-7-7-7-7-7-7-----|
E|-----7---0-5-6-7----|-8-8-----------|--3-3-3-3-3-3-3-3-5-5-5-5-5-5-5-57---|

Outro
G|-----------------------------------------|
D|-----------------------------------------|
A|------10-/99-9-7------10-/99-9-7---------|
E|----------------0-12------------0-12-----|
Suggest correction
Give kudos to tab author, rate the tab!
1 2 3 4 5
comments
print report bad tab
guest
You may want to rate the tab now too:
select rating
Wanna post a correction for this tab? Suggest correction