Oops, an error
Loading. Please wait.

In From The Storm Bass Tab

version 2
version 2

Whole song

1,155 views 1 this week
no commentswrite comment
1 2 3 4 5
3 more votes to show rating
add to favorites
launch autoscroll
font size
0
reset
guitar tuner
Autoscroll
slow
fast
+/-
esc
set tempo
stop
Help us to improve Ultimate-Guitar.com Take our survey!
×
Author
Difficulty
Tuning
intermediate
D# G# C# F# A# D#
-------------------------------------------------------------------------------
                          In From The Storm - Jimi Hendrix
-------------------------------------------------------------------------------

  <----------- main riff -----------------> [<----------IMPROVISE IN E----------------------------|
Gb|------------------|--------/7-5----------|----------------------|-------------/11-11-9---------|
Db|*-----------------|-------------7--4-----|----------------------|----------------------11-11-9-|
Ab|*-----0-2---------|-----0-2--------------|-7-777--------77---97-|-77------7*9*-----------------|
Eb|-0-2-----0-2-5--2-|-0-2---------------79-|-------7h97-----7h9---|---5*6*7*---------------------|

                                             [C# improvise]  [E impr] [F impr]
Gb|------------------|--------/7-5----------|---------------|-----------------|
Db|*-----------------|-------------7--4-----|---------------|-----------------|
Ab|*-----0-2---------|-----0-2--------------|-4-------------|-7-------8-------|
Eb|-0-2-----0-2-5--2-|-0-2------------------|---------------|-----------------|

REPEAT ABOVE, THEN
PLAY MAIN RIFF [2x]

breakdown [1:43]
Gb|-------------------|-------------------|------------------------|
Db|*-5----5--75------*|*-7----7--97------*|*-9------9--119--------*|
Ab|*--7653-----7653--*|*--9875-----9875--*|*--111097------111097--*|
Eb|-------------------|-------------------|------------------------|

[2:02]                                          (3x)    [improv in D  4x]   [main riff 2x]
Gb|--------------------------|-------------------------|-------------------|-------------------|
Db|*---------------------2-4-|---------------2-2--4-4-*|*-----------------*|-------------------|
Ab|*-4p2--4p2--4p2--4p2------|-4p2--4p2--4p2----------*|*-555555\---------*|-------------------|
Eb|-----4----4----4----4-----|----4----4---------------|-------------------|-------------------|

outro [2:48]            (4x) [main riff 2x]                             (4x)
Gb|--------------------------|-------------------|--------------------------|---------------------|
Db|*------------------------*|-------------------|*------------------------*|---------------------|
Ab|*---------------------2--*|-------------------|*---------------------2--*|------------2-3-4-5--|
Eb|-0h2-22-0h2-22-0h2-22-----|-------------------|-0h2-22-0h2-22-0h2-22-----|-22022r22022---------|
Suggest correction
Give kudos to tab author, rate the tab!
1 2 3 4 5
comments
print report bad tab
guest
You may want to rate the tab now too:
select rating
Wanna post a correction for this tab? Suggest correction