Oops, an error
Loading. Please wait.

Little Wing Tab

version 1
version 1
2,132,010 views 3,015 this week
92 commentsread comments
1 2 3 4 5
excellent!
x 312
add to favorites
launch autoscroll
font size
0
reset
how to read this tab
guitar tuner
Tab Pro tools
  • play this tab
  • loop segment
  • change instrument
  • show fretboard
  • metronome
×
Best way to learn
"Little Wing"
Autoscroll
slow
fast
+/-
esc
set tempo
stop
Contributor
[Intro]

(Guitar 1)

e|-------x-12\-|------------------------|------3h5p3-3---------------------|
B|-------x-12\-|----x-x--------------5\-|------3-----3---3-(3)-3-3---------|
G|-------x--x--|----x-x------0-----5-5\-|----0---------0-4h=5--5-4-5-4-----|
D|---------12--|----x-x--------5---5-7\-|------------------------------5---|
A|----------x--|----x-x--0h2---5h7------|----------------------------------|
E|---------12\-|-0----------------------|-/3-----------------------------3-|

e|------------------------------------|----------------------------------|
B|------------5---5-------------------|-----8h10p8-----------------------|
G|--------5---5h7-5-------------------|-----7------7--------7-7---7--7-7-|
D|------------------5h7-5---5---------|--------------9----7-7-7h9-7--7-7-|
A|----5-7---7-----------5h7-----------|---7----------7-7-10---------10-7-|
E|-5--------------------------5h7-(7)-|-0--------------------------------|

e|-----9-10-9----7-7-------------|--------------------------|
B|-----7-10-7-7h10-7-7-----------|--------------------------|
G|---7----7-7--------7-------7---|---5-5-5-5-----5-5-5------|
D|---9---------------9-------8s7-|---7-9-7-5-5-5-5-7-5------|
A|-------------------------8-----|-----------8-7------------|
E|-7-------------------7-6-------|-5-------------------5h7\-|

                               2/4                 4/4
e|-----5s7-5---5s1-------------|-------------------|---------------------------|
B|-----3s5-3---3-3-1---1-------|---------1-3p1---0-|-------------7---7-7-------|
G|---0---------0-0-0---0---0---|-----2-2---2-------|-----------7-7---7-7--7-7--|
D|---5-5s7-5---5s3-----3---3---|-----2-2-----------|---7---7---7-7h9-7-7--7-7--|
A|---------------------3---3---|-0h3-----------3---|-5---5---5-----------10-7--|
E|-3---------0-------1---1---1-|-------------------|---------------------------|

                 [Verse]

e|---------12\-||----------------------------------------------|
B|----------x--||----0-----------------------------------------|
G|-7--------x--||----x-----------------------------------------|
D|-7--------x--||----2p0h2p0-(0)-----2---2-0h2p0-0h2p0-0-------|
A|-9--------x--||----------------2-----------------------5h7p5-|
E|---------12\-||-0----------------0---0-----------------------|

e|------------------------|--------------------------|
B|--------3---3-3-2---3---|--------------------------|
G|--------2---2h4-3---2---|------5-5-5-------5-------|
D|----------5-------5-5---|------9-7-5-5---5h7p5h7p5-|
A|------------------------|------------5h7-----------|
E|-3-3--3---------------3-|-5------------------------|

e|---------------------------|----7-9-7----------------------------|
B|----10p8----------8--------|----------10-7-7---------------6-----|
G|-----7--------------7------|---------------7-9p7-----------8p7---|
D|---------9------------7----|---------------------9-8-(8)-8-----8-|
A|-----------7--(7)-------10-|-------------------------------------|
E|-0-------------------------|-7-----------------------------------|

e|-------------------------|----3------3-3-------------|
B|-------------------------|----3------1-1-------------|
G|---5---5-5---5-----------|----4h5--------0-----------|
D|-7-7-9-7-5-5-5-5-5-5---5-|------4-5\-------3-(3)-3-3-|
A|-----------8---8-7-8-7h8-|---------------------------|
E|-------------------------|-3------3\-------------1-1-|

 2/4      4/4
e|--------|--------------------|
B|------1-|---3-3---3----------|
G|------x-|---2---2-----2---2--|
D|---2--2-|-0---------0---0-0--|
A|-0h3----|--------------------|
E|---3----|--------------------|

                [Verse]

e|-2-------x-x-||-------0-----0--------------------|------------------------|
B|-3-------x-x-||------12h14-12-----0--0-----------|----3s5s3s5-3s5s3-3-----|
G|-2-------x-x-||---------------14-12--0-----------|----2s4s2s4-2s4s2-2-----|
D|-0-------x-x-||---------------------14-12----12\-|------------------------|
A|---------x-x-||---------------------------12h14\-|------------------------|
E|---------x-x-||-0--------------------------------|-3------------------3-5-|

e|---------------------|---------------------------------|
B|---------------------|----8h10p8-----------------------|
G|---------------------|-------7-------------------------|
D|------------5-5------|-------9---9-9-----9-(9)-7-7h9-9-|
A|----------5-7-5------|---------------7-7---------------|
E|-5----5-8-5-----5h7\-|-0-------------------------------|

e|-----9-10-9-7---------------|-5--------------------------------------|
B|-----7--7---7-------------6-|-5h7p5---------5------------------------|
G|--------------7-----------7-|-------7-(7)-5-5-5-5-----5-(5)-5--------|
D|--------------------------8-|-------------7---7-5-5---5-(5)-5-5-5----|
A|----------------9-------8---|---------------------5h7-------8-7-5h7\-|
E|-7----------------6-(6)-----|----------------------------------------|

                               2/4
e|----------5s7-5s3-(3)---------|-------------------|
B|---0------3s5-3s1-(1)---------|-------------------|
G|---0h2--------0-0-(0)---------|-------------------|
D|--------3-5s7-5s3-(3)---------|-5-(5)-5-------5-5-|
A|------------------------------|-3-(3)---3-(3)---3-|
E|-3------5-------------1-1h3s5-|-------------------|

 4/4
e|-------------------------------------|
B|-------------------------------------|
G|-7-(7)-(7)-7-7-7-(7)-7-7-7-(7)-7-7---|
D|-7-(7)-(7)-7-7-7-(7)-7-7-7-(7)-7-7---|
A|-5-(5)-(5)-5-5-5-(5)-5-5-5-(5)-5-5---|
E|-------------------------------------|

(Guitar 1)

e|--------------------------------------------||
B|--------------------------------------------||
G|--------------------------------------------||
D|--------------------------------------------||
A|--------------------------------------------||
E|--------------------------------------------||

(Guitar 2)
          \0.5______\1_____\1.5
e|--<12>-(<12>)----(<12>)-(<12>)--(<12>)------||
B|--<12>-(<12>)----(<12>)-(<12>)--(<12>)------||
G|--<12>-(<12>)----(<12>)-(<12>)--(<12>)------||
D|--<12>-(<12>)----(<12>)-(<12>)--(<12>)------||
A|--------------------------------------------||
E|---------------------------------------15s0-||


[Outro]

e|-----------------------------------------|------------------------3-----------------|
B|--0----0-0-0-0---------------------------|------3-------------3---3----3------------|
G|--0----0-0-0-0-----------------0----0----|--0-0-0---------3---5p4-5p4--4------------|
D|--2----2-2-2-2--2----2---2--2--2----0----|--0-0-0----------------------5------------|
A|--2----2-2-2-2--2----2---2--2----2--0----|----------------5--------------------0----|
E|--0----0-0-0-0--0----0---0--0----0--0h=3-|--3-3-3---------3------------------3------|
|
|  ~~~~~
e|-----------------------------------------|------------------------------------------|
B|-15b17---------15b17r==(15)---12---12h15-|-12-----15b17r(15)----------------15------|
G|-----------------------------------------|-------------------12-------14b16---------|
D|-----------------------------------------|------------------------------------------|
A|-----------------------------------------|------------------------------------------|
E|-----------------------------------------|------------------------------------------|


e|-------------7---5---------------------------------------|
B|-------------5---5--5-------7---5------------------------|
G|-------------5------5-------7---5---5----5-5-5-----------|
D|--------------------7---------------7----5-7-5------5----|
A|-------7-7---------------------------------------5h=7----|
E|--5----5-5-----------------------------------------------|
|
e|---------------------------------------------------------|
B|---------------------------------------------------------|
G|-14b16r====(14)----12-14b16r==(14)-14b16r======(14)---12-|
D|----------------14---------------------------------------|
A|---------------------------------------------------------|
E|---------------------------------------------------------|


e|--7-7--7-------7--7--7-----7--7--------------|
B|--8-8--8-------8--8--8-----8--8--------------|
G|--7-7--7-------7--7--7-----7--7--7--7-9-7----|
D|--9-9--9-------9--9--9-----9--9--9--9-----9--|
A|--7-7--7-------7--7--7-----7--7--------------|
E|--0-0--0-------0--0--0-----0--0--------------|
|
|                                    ~~
e|---------------------------------------------|
B|---------------------------------------------|
G|------12-14b16---12-14----12-14-12s14--------|
D|-14--------------------14--------------------|
A|---------------------------------------------|
E|---------------------------------------------|


e|----------7--9-10-9--7---------------------|
B|-------7--7--7--7-7--7----7----------------|
G|-------7--7----------7------------7------7-|
D|-------7------------------9-------8------8-|
A|-------9--------------------------8------8-|
E|--7-------------------------------6------6-|
|
|     ~~      ~~         ~~
e|-------------------------------------------|
B|-------------------------------------------|
G|-12s14---14s16------14s12---14b16r==(14)---|
D|-------------------------------------------|
A|-------------------------------------------|
E|-------------------------------------------|


e|-------------------------------------------------|
B|--5-----------5--5--5--5----1----1-0---3--3--3-3-|
G|--5--------5--5--5--5--5-0--0----0-----2--2--2-2-|
D|--7--------7--7--7--7--7-0--2----2-----0--0--0-0-|
A|--7-----------7--7--7--7----3----3-----0--0--0-0-|
E|--5-----------5--5--5--5----3----3---------------|
|
|                            ~~~~~~
e|-------------------------------------------------|
B|-12h13p12-13p12-13p12------15b17r====(15)---12---|
G|----------------------12-------------------------|
D|-------------------------------------------------|
A|-------------------------------------------------|
E|-------------------------------------------------|


e|----------------------------------------------------|
B|--0-----0--0--------3s=1--------1-1--1--------0---1-|
G|--0-----0--0--0-----0-----------0-0--0----0---0-----|
D|--0-----0--0--0-----5s=3--------3-3-------3---------|
A|--------------5-----------3-----3-3-----------------|
E|--3-----3--3--3-----------1-----1-1-----------------|
|
e|-------15-15-------15----13-------------------------|
B|----------------------------13------10-----------13-|
G|-14b16-------14b16----12-------12---12b14r==(12)-12-|
D|----------------------------------------------------|
A|----------------------------------------------------|
E|----------------------------------------------------|


 2/4                 4/4
e|-------------------|------------------------------------------------|
B|-1------1-1------1-|--7-7-----7-----7--------7-------7-7---7--7--7--|
G|-0------0-0------0-|--7-7-----7-----7--------7-------7-7---7--7--7--|
D|-2------2-2------2-|--7-7-----7-----7--------7-------7-7---7--7--7--|
A|-3------3-3------3-|--5-5-----5-----5--------5-------5-5---5--5--5--|
E|-3------3-3------3-|--5-5-----5-----5--------5-------5-5---5--5--5--|
|
e|-------------------|------------------------------------------------|
B|-8--------8--------|---------10----10-------10------10---(10)-------|
G|-7h9p7----7h9p7----|----------9----11h12p11-11p9-----9----(9)-------|
D|-------10-------10-|-12---12----12---------------12-------------12--|
A|-------------------|------------------------------------------------|
E|-------------------|------------------------------------------------|


e|-------------------|----------------------------------------------------|
B|--7----------------|--0------0------8---------8------8------------------|
G|--7----------------|--0------0------7h===9p7--7h9p7--7h===9p7--7--------|
D|--7----------------|--2------2---------------------------------7h9p===7-|
A|--5----------------|--2------2------------------------------------------|
E|--5----------------|--0------0------------------------------------------|
|
|     \2/
e|----12-------(12)--|----------------------------------------------------|
B|----12-------(12)--|-15b17--15b17--15b17-----15-------------------------|
G|----12-------(12)--|--------------------------------14b16-----14p==12---|
D|-12-12-------(12)--|----------------------------------------------------|
A|-------------------|----------------------------------------------------|
E|-------------------|----------------------------------------------------|


e|--------x--3-3-3--3--x--------------------------------|
B|--------3--3-3-3--3--3--------------------------------|
G|--------4--5-5-5--5--5p====4--4-----------------------|
D|--------5---------------------5-----------------------|
A|--x---------------------------------------------------|
E|--3------------------------------------3--------4-----|
|
e|-------15-15-----15-------15-------15-------15--------|
B|------------------------------------------------------|
G|-12b14--------------14b16----14b16----14b16----14b16--|
D|------------------------------------------------------|
A|------------------------------------------------------|
E|------------------------------------------------------|


e|----------------7p=5---------------------------------------------|
B|----------------5-----5--5---------5-----------------------------|
G|---------5---5--5-----5--5--7----5-5-----------------------------|
D|---------5---5--------7------------7-5-7-5-----------------------|
A|--7------7---7-------------------------------7--5----------------|
E|--5--------------------------------------------------7--6-5----3-|
|
|                            ~~~~~~~~~~~~~~~~~~~~
e|-----------------------------------------------------------------|
B|-----------------------------------------------------------------|
G|-14b16r(14)-12-14----12----14b16r==========(14)---12h==14p==12---|
D|------------------14----14---------------------------------------|
A|-----------------------------------------------------------------|
E|-----------------------------------------------------------------|


e|--------------------------------------7----------7---7------7---7------7-----------*|
B|----8--8-10p8---------(8)--8----------8----------8---8------8---8------8-----------*|
G|----7--7--7----------------7----------7----------7---7------7---7------7-----------*|
D|----9--9--9----------------9----------9----------9---9------9---9------9-----------*|
A|--------------------------------------7----------7---7------7---7------7-----------*|
E|--0-----------------------------------0----------0---0------0---0------0-----------*|
|
e|-----------------------------------------------------------------------------------*|
B|-----------------------------------------------------------------------------------*|
G|--------------------------12-(12)-12---------12-12-(12)-12---------12--------------*|
D|-14---12------------------12-(12)-12-14-(14)-12-12-(12)-12---------12-14-(14)-14---*|
A|---------14---(14)-14--------------------------------------14-(14)-----------------*|
E|-----------------------------------------------------------------------------------*|


***********************************
| h   - hammer-on
| p   - pull-off
| b   - bend
| pb  - pre-bend
| r   - bend release
| /   - Slide up
| s   - legato slide
| S   - shift slide
| +   - natural harmonic
|[n]  - artificial harmonic
| n(n)- tapped harmonic
| ~   - vibrato
| tr  - trill
| T   - tap
| TP  - trem. picking
| PM  - palm muting
|\n/  - tremolo bar dip; n = amount to dip
| \n  - tremolo bar down
| n/  - tremolo bar up
|/n\  - tremolo bar inverted dip
| =   - hold bend; also acts as connecting device for hammers/pulls
| <>  - volume swell (louder/softer)
| x   - on rhythm slash represents muted slash
| o   - on rhythm slash represents single note slash
***********************************
comments
print report bad tab
92 comments total. Showing first comments.
0 reply
fat_boab wrote on November 13 2002, 12:00 am

5/5 Best tab for little wing on this site

+22 reply
dunlop88mm wrote on June 13 2003, 12:00 am

its tuned flat

+2 reply
Idontkno wrote on June 30 2003, 12:00 am

Magic, definately the best I've seen. Good job.

I want to post or [tab]
guest
You may want to rate the tab now too:
select rating
Please do not post tabs as comments. Select "correction" instead!