Oops, an error
Loading. Please wait.

Love Or Confusion Bass Tab

version 1
version 1

Whole song

Interactive

2,089 views 3 this week
no commentswrite comment
1 2 3 4 5
1 last vote to show rating
add to favorites
launch autoscroll
font size
0
reset
guitar tuner
Autoscroll
slow
fast
+/-
esc
set tempo
stop
Help us to improve Ultimate-Guitar.com Take our survey!
×
Author
INTRO
11/12-12-12--11/12-12-12--11/12-12-12--11/12-12-12--|    |-12-----R--|
----------------------------------------------------|    |--------E--|
----------------------------------------------------|    |--------S--|
----------------------------------------------------| x2 |--------T--|

VERSE
--------------------3----|
----------3--5--5-5----5-|
-----3h5-----------------|
3--3---------------------|x8


--------------------3----|
----------3--5--5-5----5-|
-----3h5-----------------|
3------------------------|x3

------------------------|
---------3--5--8--7--6--|
-----3/5----------------|
3--3--------------------|

CHORUS
0--0--0-0-0-0--3--2--1--|
------------------------|
------------------------|
------------------------|x5

0--3--2--1--0--3--2--1--|-0------|
------------------------|--------|
------------------------|--------|
------------------------|--------|

SOLO
------------------------|------------------------|
------7-----------7-----|------7-----------7-----|
---7-----7-----7-----7--|---7-----7-----7-----7--|
5-----------5-----------|5-----------5-----------|

--------10--------------10-------|------------------|
----10-----10-10----10-----10-10-|-12--12--12--12---|
/8---------------8---------------|---12--12--12--12-|
---------------------------------|------------------|

------------------------|------------------------|
------7-----------7-----|------7-----------7-----|
---7-----7-----7-----7--|---7-----7-----7-----7--|
5-----------5-----------|5-----------5-----------|

--------10--------------10-------|------------------|
----10-----10-10----10-----10-10-|-12--12--12--12---|
/8---------------8---------------|---12--12--12--12-|
---------------------------------|------------------|

------------------------|------------------------|
------7-----------7-----|------7-----------7-----|
---7-----7-----7-----7--|---7-----7-----7-----7--|
5-----------5-----------|5-----------5-----------|

--------10--------------10-------|------------------|
----10-----10-10----10-----10-10-|-12--12--12--12---|
/8---------------8---------------|---12--12--12--12-|
---------------------------------|------------------|

-----------------------|10/12-12-12-12-12-12-12-12-12-12-12-12-12-12-12-12|
-----------------------|--------------------------------------------------|
-----------------------|--------------------------------------------------|
10-10-10-10-10-10-10-10|--------------------------------------------------|

---------------------------------|----------------------------------------|
/12------------------------------|----------------------------------------|
---------------------------------|----------------------------------------|
-------10--10--10-10-10-10-10----|8/10-10--8/10-10--8/10-10-10-10-10--10--|

the same ideas are repeated throughout the song with minor changes in rhythm
Structure
INTRO
VERSE
CHORUS
VERSE
CHORUS
SOLO
VERSE
CHORUS
OUTRO - same riff as verse
Suggest correction
Give kudos to tab author, rate the tab!
1 2 3 4 5
comments
print report bad tab
guest
You may want to rate the tab now too:
select rating
Wanna post a correction for this tab? Suggest correction