Oops, an error
Loading. Please wait.

Machine Gun Tab

version 1
version 1

Live

Whole song

Interactive

57,579 views 138 this week
25 commentsread comments
1 2 3 4 5
excellent!
x 23
add to favorites
launch autoscroll
font size
0
reset
how to read this tab
guitar tuner
Autoscroll
slow
fast
+/-
esc
set tempo
stop
Help us to improve Ultimate-Guitar.com Take our survey!
×
Author
Difficulty
advanced
I got some of this tab from other people and i mixed in correct ways to do this so this 
95 % correct...... this takes a while to learn:-(


[Intro]

univibe

e|---------------------------------------------------------------------------------------------|
B|----------------------------------------------------------0---0------------------------------|
G|-12------12--x--x--12h14--12~~---12h14--12-----------------------------------------12h14-12~-|
D|-x----14-----x--x-----------------------14--12h14-12h14---14-------------12h14--14-----------|
A|-x-----------x--x-------------------------------------------------14-------------------------|
E|-0--------------------------------------------------------0-----------15---------------------|

e|-0-----------------------------------------------------------------------------------|
B|-0-------0---------------------------0------------------0----------------------------|
G|-x--------------------12h14--12h14~-------------------------------------12h14--12~---|
D|-12h14---------------------------------12h14-12---------12h14--------14------------x-|
A|-0----------0------------------------------------13p12-----------------------------x-|
E|--------------0--15-0-----------------------------------0------0--15-----------------|

e|-------------------------------------------------------------------------------------------------|
B|--------------------------------------------------0----------------------------------------------|
G|x-x-x-x-x-x-x-x-x--14h14-12h14~--12------------------------------------14(16)14-12---------------|
D|x-x-x-x-x-x-x-x-x--------------------12----12h14--12h14-------------x--------------14-12h14p12-x-|
A|x-x-x-x-x-x-x-x-x--------------------12h14--------------------------x--------------------------x-|
E|x-------x-------x---------------------------------0------12--12-12--12---------------------------|

e|--------------------------12---------------------------0-------------------------|
B|-0----------------15(17)~----12----12------------------0-----------15------------|
G|---------------12---------------14----12(14)--------------------12-14(16)14p12---|
D|-14--14------x-------------------------------14p12--x--14-----x-14-------------x-|
A|----------------------------------------------------x-----14--x----------------x-|
E|-0----0---0----------------------------------------------------------------------|

e|--------------------------------------------------------------------------------------|
B|--------------------------------------------------------------------------------------|
G|--------------------------------------------------------------------------------------|
D|-x-x-x-x-x-x-x-x-x-------------------------------x-x-x-x-x-x-x-x-x--------------------|
A|-x-x-x-x-x-x-x-x-x-12(14)-12(14)-12-10-----------x-x-x-x-x-x-x-x-x--12(14)12-12-10----|
E|-x-x-x-x-x-x-x-x-x---------------------12p10h12--x-x-x-x-x-x-x-x-x-----------------10-|

e|----------------------------------------------------------------------------------|
B|-x-x-x-x-x-x-x-x-x----------------------------------------------------------------|
G|-x-x-x-x-x-x-x-x-x----------------------------------------------------------------|
D|-x-x-x-x-x-x-x-x-x-----------------------------x-x-x-x-x-x-x-x-x------------------|
A|-x-x-x-x-x-x-x-x-x-12(14)-12(14)-12-10---------x-x-x-x-x-x-x-x-x-12(14)12-10------|
E|-x-x-x-x-x-x-x-x-x---------------------12p10p0-x-x-x-x-x-x-x-x-x-------------10---|

e|------------------------0--------------------------------------------------------------------|
B|---------------------------------------0-----------------------------------------------------|
G|-------------------2(4)---2(4)2p0------1--0----------------15----15--------------------------|
D|---2-0t2--2p0-2-------------------0t2--2----0t2~~---14(16)---(16)---14(16)14p12---12---------|
A|-------------------------------------------------------------------------------14----14p12---|
E|-0---------------0------------------------------------------------------------------------12-|
                                                            fdbk

e|--------------------------------------------------------------------------------|
B|-15----------------------------------12-----------------------------------------|
G|-14(16)14p12-----12h14~--12h14p12----12----------12(14)12~~~--12(14)12~~-14~-12-|
D|-------------14-------------------14----14p12-----------------------------------|
A|----------------------------------------------14--------------------------------|
E|--------------------------------------------------------------------------------|

e|---------------------------------------------------------------------------------------|
B|---------------------------------------------------------------------------------------|
G|-14p12h14p1211-11t12-12h14p12---12-------------------------16(18)16p1514(16)141211/12--|
D|------------------------------14----14p12-------------12/14----------------------------|
A|------------------------------------------14p1210--------------------------------------|
E|---------------------------------------------------12----------------------------------|

e|-------------------------------------------------------------------0-----------0-----|
B|--------------------------------------------------------------0----0--------0--0-----|
G|-11~-9~-7~-9(11)9-7h9p7-987---------------------------------2/4--4--32p0----1--1-----|
D|------------------------------987p5-7/9----------------0h2----------------2--2--2----|
A|------------------------------------------7------------------------------------2--2--|
E|--------------------------------------------9/12-0---0-3-----------------------------|

Lyrics Begin
\"machine gun..\"

e|-----------0-0--0-------0--0--/5(6)-3-----------------------------------------0-|
B|---0-------0-0--3/5-5p3-0--0----------5p3p0---3--3-3p0-3----------------------0-|
G|---------------------------------------------------------2(4)2p0----------------|
D|-------0h2-----------------2-------------------------------------0h2---0h2--2---|
A|---------------------------2----------------------------------------------------|
E|-0---3--------------------0----------------0------------------------3-----------|
                                    "machine gun..

e|----------0--------0----------0--0--3/5--3--------------------0---0------5(7)-5(7)5-3---|
B|----------0--------0----------0--0---------5p3-0-0-----3(4)---0---0---0--5(7)---------5-|
G|-1/4------1--1/4---1--2/4--1--1--1---------------0h2p0--------1-------------------------|
D|-------------------2-------2-----2----------------------------2-------2-----------------|
A|-2/5--0h2----2/5------3/5--2------------------------------------------------------------|
E|-----------------0---------0--------------------------------0-------0-------------------|

e|-3----------3---------------------------0--0-----15(17)~-14-12------------0--0---0-15(17)~--|
B|---3h5~-3h5---5p3p0-5p3p0---------------0--0--0----------------12---------0--0-0-0----------|
G|--------------------------2(4)2p0-------------0----------------14-12------------------------|
D|----------------------------------2--2--------0----------------------14--2------------------|
A|-------------------------------------2------------------------------------2-----------------|
E|-------------------------------------0------------------------------------0-----------------|
                                                                    evil man

e|-12--------------------0------------------------0--------------0--------------------0--|
B|----12--------------0--0--0-3(5)3(5)3(5)3(5)----0-0---------0--0-0--3(5)3--3/53p0--0---|
G|-------12-----------1--1--------------------------1---------1----1---------------------|
D|----------14-14----2------------------------2------------2-----------------------------|
A|---------------------------------------------2-----------------------------------2-----|
E|------------------0--------------------------0-------3(4)------------------------0-----|

e|--------0-3/5-3---------------------------------0-----------------------------------|
B|----0---0-------5p3p0--0-3-3(5)3p0-3-3(5)3p0----0-0--3-0-3-0-3-0-3----------------0-|
G|----1---------------------------------------------1----------------2(4)2p0-----1----|
D|-2--2----------------------------------------2-----------------------------2-0-2----|
A|-2----------------------------------------------------------------------------------|
E|-0-------------------------------------------0---------------------------------0----|

e|-----------------------------------0----------0--------------0-----------------------------|
B|-----------------------------------0----------0---------0----0-----------------------------|
G|-2(4)2(4)2(4)2p0-----2--2p0--------1-------------------------------------------------------|
D|-----------------2p0------0-0h2--2--------0h2----2/14--------14----14-14-------12h14p12----|
A|------------------------------------------------------0------------------12h14----------14-|
E|---------------------------------0----3(4)--------------15p0-----0-----------------------0-|
                                                         I pick up my axe

e|--------------------------------------------------------------------------------0-------|
B|--------------------------------------------------------------------------------0-------|
G|-------12(14)---------------------------------------12----------------------------------|
D|-12h14--------14-----14--------12h14p12----12----14-----12/14----14p12------14-------14-|
A|-------------------------12h14----------14----12-----------------------14---------------|
E|-----------------0-0------------------------------------------0-----------0-------12----|

e|--------------------------------------------------------------------------------------0--|
B|---------------------------------15---------------------------------------------------0--|
G|--12(14)-----12--12-12-12-----------14(16)14p12-------------12h14------------------------|
D|---------14--14--14-14-14--14-14----------------14-14-12-14-------14-12------------------|
A|------------------------------------------------------------------------14-13-12---------|
E|---------------------------------------------------------------------------------15-0----|

e|----------------------------------------0--------0------------12-----------------------|
B|-15-------------------------------------0--------0---15(17)~~----15-12-----------------|
G|-14(16)--14p12-----12h14--12~------------------------------------------14(16)-14p12----|
D|---------------14--------------14p12h14-12------------------------------------------14-|
A|-------------------------------------------14-13-14------------------------------------|
E|-------------------------------------------0--0--0-------------------------------------|

e|----------------------0------------------------------------------0------------------------|
B|----------------------0------------------------------------------0--12--------------------|
G|-12------------------------------------------12(14)~-----------------------------14(16)14-|
D|----14p12------------------------------12h14---------14p12h14-------14--14-14-14----------|
A|----------14-14------------------12h14--------------------------14------------------------|
E|----------------0--0-----0-12h15------------------------------0---------------------------|

                 pick up my axe

e|-------------------------------------------------------------------------------------------|
B|---------------------------------------------0--------------------------0--0--0---0--0--0--|
G|-14~--14~--12~-----------------------------------------------------------------------------|
D|----------------14-12h14~--14--12--14-14(16)---------------------12h14--14-14-14--14-14-14-|
A|---------------------------------------------14p12---------12h14---------------------------|
E|---------------------------------------------------0--0-0--0------------0--0--0------------|

e|--------------------------------------------------------------------------------------|
B|-------------------------------15--------12-------15(17)-15(16)---------------------0-|
G|-12~-12~-12~-----------------0-14(16)14--------12--------15(16)-12p0------------------|
D|-------------14p12-----------0--------------14------------------------14--14-14-14-14-|
A|------------------12--0--0------------------------------------------------------------|
E|-------------------------0---------------------------------------------0--------------|

e|--------------------------------------------------------------------------------------------|
B|--------------------------------------------------------------------------------------------|
G|-12-14(16)-12-------14(16)-12~----------------------0-------------12-14(16)p0------14(16)-0-|
D|--------------14p12------------14~-14--14--14-14-14-0---14-12h14----------------14----------|
A|------------------------------------------------------0-------------------------------------|
E|----------------------------------------0-------------------------------------0-------------|

e|------------------------------------------------------------------------------------------|
B|--------------------------------------15p12--------------12h15p12-------------12----------|
G|--------12-14(16)0-------14(16)14p12--------14p12-----------------14p12----12----14p12----|
D|--12h14--------------14----------------------------14p12----------------14-------------14-|
A|------------------------------------------------------------------------------------------|
E|-------------------0----------------------------------------------------------------------|

e|-------------------------------------------------------------------12-------------------|
B|---------------15-----15--15-----15-----------------------15----15-12h14----------------|
G|---------------14(16)-14--14(16)-12(14)----------------------12-------------12----------|
D|-12h14-14--14---------------------------14----14------14-----------------12----14p12h14-|
A|-------------------------------------------------0--0-----------------------------------|
E|--------0--0--------------------------------0-------------------------------------------|

e|----------------------------------------------------------------------------------------|
B|---12h14------------------------------------------------------------------------------0-|
G|---------12~------------------------------14(16)-12-------------------------------------|
D|-------------14p12h14----14p12h14---14-14-----------14p12h14--12------------------------|
A|--------------------------------------------------------------12h14p12-----14p12-10-----|
E|-0--------------------0-----------0------------------------------------0-0----------0---|

e|--0------------------0--0-0---------------------------------------------------------------|
B|--0------------------0--0-0------------------------------------15-------------------------|
G|-----12h14p12~---------------12-14--14-12------12h14--14-12-12----14(16)14----------------|
D|-14-------------14--14--------------------14-------------------------------14-14-14-12-14-|
A|---------------------------------------------14-------------------------------------------|
E|--0---------------------------------------------------------------------------------------|

e|----------------------------------------0----------------------0--0-|
B|----------------------------------------0-15-----15------------0--0-|
G|-12h14--12~-------------------------------14(16)-(16)14p12----12----|
D|-------------14p12h14-12-----------------------------------14-14----|
A|--------------------------14p12-------------------------------------|
E|--------------------------------15p12-0---------------------------0-|


[Guitar Solo]   

bar dive
e|-17(19)~~~~~~~~---\\(17)//-17(19)~~----17(19)17p15----15h17(19)-15(17)~--15(17)~~--15(17)~-|
B|---------------------------------------17(19)17----17--------------------------------------|
G|-------------------------------------------------------------------------------------------|
D|-------------------------------------------------------------------------------------------|
A|-------------------------------------------------------------------------------------------|
E|-------------------------------------------------------------------------------------------|

e|-----------15(16)------15--------------12-----------------12-------12--12-15p12-------------|
B|-17--15h17--------17-x----17p15------x----15(17)--15(17)~----12h15---------------12-15(17)--|
G|--------------------------------7/12--------------------------------------------------------|
D|--------------------------------------------------------------------------------------------|
A|--------------------------------------------------------------------------------------------|
E|--------------------------------------------------------------------------------------------|

e|-12-15p12--------12-15p12--------15p12--15p12-----------15p12-----------------------------|
B|----------15(17)----------15(17)--------------15(17)-12-------15p12h15p12-----------------|
G|--------------------------------------------------------------------------14(16)-14p12----|
D|---------------------------------------------------------------------------------------14-|
A|------------------------------------------------------------------------------------------|
E|------------------------------------------------------------------------------------------|

e|----15(17)(17)15p12--15p12--------12h15p12-15(17)15--12--15--12---------------------12--|
B|----------------------------12h15-------------------------------15(17)15-15(17)15~------|
G|-12----------------------------------------------------------------------15(17)15-------|
D|----------------------------------------------------------------------------------------|
A|----------------------------------------------------------------------------------------|
E|----------------------------------------------------------------------------------------|

e|------------------------------------------------------------------------------------------|
B|-15-12-15(17)----------------15p12--------------------------15--15------------------------|
G|--------------15(17)15p14-12-------14p12h14p12----12h14(16)--------14(16)14-12-----0--12~-|
D|-----------------------------------------------14------------------------------14---------|
A|------------------------------------------------------------------------------------------|
E|------------------------------------------------------------------------------------------|

e|-------------------------------------------12-------12-----------------------------------|
B|-12-------------------------------------12----15(17)---15p12-----------12----------------|
G|-12-14(16)14-12------0---14(16)--15(17)----------------------14(16)-12----12(14)12p0-----|
D|-----------------14--0-------------------------------------------------------------------|
A|-----------------------------------------------------------------------------------------|
E|-------------------------------------------------------------------------------------0---|

e|--------------------------------------------------------------------------------------------|
B|-12----------12--15--12h14p12----12(15)~12--------------------------------------------------|
G|----12(14)~~------------------14-----------14-12----12--14-14(16)-14-14--12-14-12(16)-12~~--|
D|-------------------------------------------------14-----------------------------------------|
A|--------------------------------------------------------------------------------------------|
E|--------------------------------------------------------------------------------------------|

e|-x-----------12--------14----------15-----12h14p12----12--------------------------12----|
B|---15(17)15~----15-12-----------12-12h14-----------14----15-15(17)~~--12-15-------------|
G|--------------------------14-12---------------------------------------------12h13-------|
D|----------------------------------------------------------------------------------------|
A|----------------------------------------------------------------------------------------|
E|----------------------------------------------------------------------------------------|

e|-------------12--------------------------------------------12-------------12--------------|
B|-15-12----------15-12-------12-15-12-------12-15-12-----------15-12-------------12--------|
G|-------12h13----------12h14----------12h13-----------12h13----------12h13----12----13h14--|
D|------------------------------------------------------------------------------------------|
A|------------------------------------------------------------------------------------------|
E|------------------------------------------------------------------------------------------|

e|-----------------------------------12-----------------------------------------------------|
B|-12--------12-------------12----------------12-------12-------12--------------------------|
G|----12(14)----------12h13----12h14----121h3----12h14----12h14----12h14(16)~~--14(16)14p12-|
D|--------------12-14-----------------------------------------------------------------------|
A|------------------------------------------------------------------------------------------|
E|------------------------------------------------------------------------------------------|

e|--------14(16)14----12--------12-12--------------12----------------|
B|-----------------15----15(17)----15-12--------12----15-12h15-12h15-|
G|---------------------------------------14(16)----------------------|
D|-14-12-------------------------------------------------------------|
A|-------------------------------------------------------------------|
E|-------------------------------------------------------------------|

   trill continued for 6 measures
         bar dive   bar pull/bar dive           bar dive     bar vibrato
e|-----------------------------------------------------------------------------------------|
B|-12t15\\/\\\\//\\\\/////\\\\\\////----15----\\\\////15----~~~--------15-----------15-----|
G|----------------------------------------14(16)--------14(16)~~~--------14(16)-14(16)-----|
D|-----------------------------------------------------------------------------------------|
A|-----------------------------------------------------------------------------------------|
E|--------------------------------------0--------------------------------------------------|

e|------------------------------------------------------------------------------------------------|
B|-------------------------------------12-------------------------------------------------15(17)~-|
G|-14-12----12-14(16)--------12-14(16)----14-12----12h14-14-12----12----------------12~-0---------|
D|-------14---------------14--------------------14-------------14----14-12----12h14---------------|
A|-------------------------------------------------------------------------14---------------------|
E|---------------------12-------------------------------------------------------------------------|

e|-12-----------------------------------------------------------------------------------------|
B|----12-15-12--------------------------------15-12-------------------------12-15-12-14-12----|
G|-------------14(16)-12-14p12----12-14(16)14-------14(16)14-0--------12-14----------------14-|
D|-----------------------------14----------------------------0--12-14-------------------------|
A|--------------------------------------------------------------------------------------------|
E|--------------------------------------------------------------------------------------------|

e|-----------------15(17)-15(17)15-12----12----12----12-14(16)-14(16)-14-12----14-12--------|
B|-12---------------------------------15----14----12------------------------12-------15~-12-|
G|----12-----12~-0--------------------------------------------------------------------------|
D|-------14~--------------------------------------------------------------------------------|
A|------------------------------------------------------------------------------------------|
E|------------------------------------------------------------------------------------------|

e|-------14-12-------12-14-12-------12h14p12-------12h14p12-------12-------12-------15-15(17)-|
B|----12-------12-15----------12h15----------12h15----------15-12----15p12----15p12-----------|
G|-14-----------------------------------------------------------------------------------------|
D|--------------------------------------------------------------------------------------------|
A|--------------------------------------------------------------------------------------------|
E|--------------------------------------------------------------------------------------------|

e|-15-12-15(17)-17(19)~--17-15h17p15----15(16)---0----17(19)~17-15(16)---17(19)17--17-15-|
B|----12-----------------------------17-------17-0--------------15(16)-------------------|
G|-----------------------------------------------0--0------------------0-----------------|
D|---------------------------------------------------------------------------------------|
A|---------------------------------------------------------------------------------------|
E|---------------------------------------------------------------------------------------|
                                          bar dive

e|-17(19)17-15(16)------17(19)~17-17(19)~~~-\\---//-------------------------------------------|
B|-----------------17-----------------------------------------3(5)3(5)3(5)3(5)3p0h3p0---------|
G|--------------------0---------------------------------------------------------------2(4)2p0-|
D|--------------------------------------------------------------------------------------------|
A|--------------------------------------------------------------------------------------------|
E|----------------------------------------------------0-\\//0---------------------------------|

e|-------------------------------------------------------------------------------------|
B|----------------------------------0---12--12-15--15(17)--(17)15--15---------15(17)15-|
G|-0h2(4)2p1-1---2(4)(4)2--2(4)2p0--1------------------------------14(16)14------------|
D|-----------2----------------------2--------------------------------------------------|
A|-------------------------------------------------------------------------------------|
E|--------------------------------------------------------------------------0----------|

e|----------------------------------------------12--------12-------------------------------------|
B|-0--15--------15---------------------------------15(17)----15-12-------------------------------|
G|-0--14(16)14--14(16)14--14p12-----14(16)14p12--------------------14(16)14p12----12-14(16)14p12-|
D|------------------------------14---------------------------------------------14----------------|
A|-----------------------------------------------------------------------------------------------|
E|-----------------------------------------------------------------------------------------------|

e|-------------------------------------------------------------------------------------------|
B|-------------------------------------------------------------------------------------------|
G|----12(14)~--------------12~-------------12---------------12h14p12-------------------------|
D|-14----------------12-14-----------12-14-12--------12h14-----------14p12h14p12-------------|
A|-------------12h14-----------12h14-----------12h14-----------------------------0--12-12h14-|
E|-------------------------------------------------------------------------------------------|

e|-----------------------------------------------------------------------------------------|
B|-----------------------------------------------------------------------------------------|
G|--------12-14--12~-------------------------------------------------------------------12~-|
D|-12-14--------------14p12--------------------------------------------------12--12-14-----|
A|--------------------------14-13-12-10-12(14)12-10------10----------12h14-14--------------|
E|--------------------------------------------------12-0----10-10h12-----------------------|

e|-------------------------------------------------------------------------------------|
B|-------------------------------------------------------------------------------------|
G|----------------12-12--14(16)14-14(16)14-12~-----------------------14(16)14-12-------|
D|-12h14--14---14p12----------------------------14p12h14----12h14p12-------------12~---|
A|---------0---------------------------------------------------------------------------|
E|-------------------------------------------------------0---------------------------0-|

e|-17(19)-17(19)--17-15--------------------------------12-------------------------------|
B|----------------------17-15h17~----------------12-12----15p12-14p12-------------------|
G|---------------------------------0-6/13-15(17)----------------------14-14p12-12-------|
D|--------------------------------------------------------------------------------14----|
A|--------------------------------------------------------------------------------------|
E|-----------------------------------------------------------------------------------12-|

  Octavia on
e|--------17(19)-17(18)17-15-----------------------------12------------------------------------------|
B|---------------------------17-17~-------------------12----12-15-12--------12-----------------------|
G|---------------------------------------------14(16)----------------14(16)----12----12-14(16)14p12--|
D|----0---------------------------------------------------------------------------14-12--------------|
A|-0--0------------------------------5p0-------------------------------------------------------------|
E|-0-------------------------------------0--7--------------------------------------------------------|

e|-------------------------------------------------------------------------------------------|
B|--------------15---------------------------------------------------------------------------|
G|----12-14(16)----14(16)-14p12----12h14(16)14p12----12(14)12----12(14)----------14(16)14p12-|
D|-14---------------------------14----------------14----------14--------14p12----------------|
A|----------------------------------------------------------------------------14-------------|
E|-------------------------------------------------------------------------------------------|

e|-----------------------------------------------------------------------------------------|
B|-----------------------------------------------------------------------------------------|
G|----12----------14(16)14p12----12--------------------------------------------------------|
D|-14----14p12----------------14----14p12-----14p12----------------12h14p12----------------|
A|-------------14-------------------------14--------14p12----12h14----------14p12----12----|
E|--------------------------------------------------------15----------------------15----12-|

e|----------------------------------------------------------------------------------------|
B|----------------------------------------------------------------------------------------|
G|----------------------------------------------------------------------------------------|
D|-14p12----------------12h14p12----------------------12h14---------12h14p12--------------|
A|-------14p12----12-------------14-12-12-------12h14---------12h14----------14p12--------|
E|-------------15----12-------------------12-15-------------0----------------------15-0---|

  Octavia off
e|----------------------------------------------------------------------------------|
B|----------------15----------15----------15----------15-------------15(17)~~(17)15-|
G|-------12-14(16)--(16)14(16)--(16)14(16)--(16)14(16)--(16)14p12-------------------|
D|-12h14----------------------------------------------------------14----------------|
A|----------------------------------------------------------------------------------|
E|----------------------------------------------------------------------------------|
                                         bar dive

e|--------12--------12--------------------------------15(17)-15-12----15~-12---------------|
B|-15(17)----15(17)------------------------------------------------12--------15(17)~-12----|
G|---------------------14(16)14p12----12~~-0\\--//0----------------------------------12-12-|
D|---------------------------------14------------------------------------------------------|
A|-----------------------------------------------------------------------------------------|
E|-----------------------------------------------------------------------------------------|

e|-----------------------12-------14p12-----------12----12--------------------------------|
B|--------------------12----15-12-------12-15(16)----15-12--------15p12-------------------|
G|----------12-14(16)--------------------------------------14(16)-------14(16)-14p12------|
D|-14-14p12-------------------------------------------------------------------------14-12-|
A|----------------------------------------------------------------------------------------|
E|----------------------------------------------------------------------------------------|

e|--------------------------------|
B|-15----------------------15-----|
G|-14(16)---14\\//14-14~~~-14(16)-|
D|--------------------------------|
A|--------------------------------|
E|--------------------------------|



************************************

| x    Dead note
| (n)  Ghost note
| h    Hammer-on
| p    Pull-off
| t    Tapping
| /    Slide up
| \    Slide down
| ~    Vibrato

************************************
Suggest correction
What's this?
You can suggest a correction to this tab. Community and Mods will review your correction and vote to approve or reject it.
comments
print report bad tab
25 comments total. Showing first comments.
0 reply
slug 183 wrote on August 1 2006, 10:39 am

God damn.

+2 reply
villanova_junct 139 wrote on August 16 2006, 06:00 pm

this is the version on the Band of Gypsys CD right?

0 reply
Jon101791 125 wrote on September 7 2006, 05:48 pm

whoa

guest
You may want to rate the tab now too:
select rating
Please do not post tabs as comments. Select "correction" instead!