Oops, an error
Loading. Please wait.

Manic Depression Bass Tab

version 2
version 2

Whole song

Interactive

15,833 views 3 this week
2 commentsread comments
1 2 3 4 5
x 3
add to favorites
launch autoscroll
font size
0
reset
guitar tuner
Autoscroll
slow
fast
+/-
esc
set tempo
stop
Help us to improve Ultimate-Guitar.com Take our survey!
×
Author
Difficulty
novice
#----------------------------------PLEASE NOTE---------------------------------#
#This file is the author's own work and represents their interpretation of the #
#song. You may only use this file for private study, scholarship, or research. #
#------------------------------------------------------------------------------##

                           MANIC DEPRESSION (Bassline)
                           As recorded by Jimi Hendrix
            (From the 1969 Album JIMI HENDRIX EXPERIENCE SMASH HITS)

Words and Music by Jimi Hendrix
Transcribed by Brian Gelvin

Gtr I (Eb Ab Db Gb) - 'Electric Bass'

 Intro
  Moderate Rock Q=148(8=s8)
 3/4
  Gtr I
|----------|-------|----------|------------------|--------------|
|----------|-------|-5--6--7--|----7-(7)-5-7-(5)-|----7-5-7-(5)-|
|-5--6--7--|-------|----------|------------------|--------------|
|----------|-------|----------|-5----------------|-5------------|


                                Verse
|--------------|--------------||-----------|
|----7-5-7-(5)-|----7-5-7-(5)-||-----------|
|--------------|--------------||--------7--|
|-5------------|-5------------||-5--/9-----|


|--------------|----------|--------------------|
|--------------|----------|---(5)-7-7-5-7-(5)--|
|--------5-----|-5--6--7--|--------------------|
|-3--/7----(7)-|----------|-5------------------|


|--------------|--------------|--------------|
|----7-5-7-(5)-|----7-5-7-(5)-|----7-5-7-(5)-|
|--------------|--------------|--------------|
|-5------------|-5------------|-5------------|


         ~
|-----------|--------------|----------|
|-----------|--------------|----------|
|--------7--|--------5-----|-5--6--7--|
|-5--/9-----|-3--/7----(7)-|----------|


|-------------------|---------------|
|---(5)-7-(7)-5-7-5-|---(5)-7-5-7-5-|
|-------------------|---------------|
|-5-----------------|-5-------------|


|-----------------|--------------|-----------|
|---(5)-7-7-5-7-5-|---(5)-7------|-----------|
|-----------------|----------7\--|--------2--|
|-5---------------|-5------------|-0--/4-----|


|--------------|-----------|-----------|-------------|-------------|-----------|
|--------------|-----------|-----------|-------------|-------------|-----------|
|--------5-----|-5---3-5-3-|-5---2-3-2-|-3-2-3-2-----|-------------|--------7--|
|-3--/7----(7)-|-----------|-----------|---------3-2-|-3-2-3-2-3-2-|-5--/9-----|


|--------------|----------|-------|----------|--------------------|
|--------------|----------|-------|-5--6--7--|---(5)-7-(7)-5-7-5--|
|--------5-----|-5--6--7--|-------|----------|--------------------|
|-3--/7----(7)-|----------|-------|----------|-5------------------|


|---------------|---------------|------------||
|---(5)-7-5-7-5-|---(5)-7-5-7-5-|---(5)-7----||
|---------------|---------------|------------||
|-5-------------|-5-------------|-5----------||


 Verse
|-------------|--------------|----------|
|-------------|--------------|----------|
|----------7--|--------5-----|-5--6--7--|
|-5-(5)S9-----|-3--/7----(7)-|----------|


|-----------------|-----------------|--------------|--------------|-----------|
|---(5)-7-7-5-7-5-|---(5)-7-7-5-7-5-|----7-5-7-(5)-|----7-5-7-(5)-|-----------|
|-----------------|-----------------|--------------|--------------|--------7--|
|-5---------------|-5---------------|-5------------|-5------------|-5--/9-----|


|--------------|----------|-------------------|
|--------------|----------|---(5)-7-7-5-7-(5)-|
|--------5-----|-5--6--7--|-------------------|
|-3--/7----(7)-|----------|-5-----------------|


|-------------------|--------------|
|---(5)-7-7-5-7-(5)-|----7-5-7-(5)-|
|-------------------|--------------|
|-5-----------------|-5------------|


|------------|-----------|--------------|-----------|-----------|
|---(5)-7----|-----------|--------------|-----------|-----------|
|------------|--------2--|--------5-----|-5---3-5-3-|-5---2-3-2-|
|-5----------|-0--/4-----|-3--/7----(7)-|-----------|-----------|


|-------------|-------------|-----------|--------------|----------|
|-------------|-------------|-----------|--------------|----------|
|-3-2-3-2-----|-------------|--------7--|--------5-----|-5--6--7--|
|---------3-2-|-3-2-3-2-3-2-|-5--/9-----|-3--/7----(7)-|----------|


                                                      Interlude
|--------|----------|--------|----------|-----------||--------------|
|-5------|-5--6--7--|--------|----------|---(5)S=7--||----7-5-7-(5)-|
|--------|----------|--------|-5--6--7--|-----------||--------------|
|--------|----------|-5------|----------|-----------||-5------------|


|--------------|--------------|--------------|
|----7-5-7-(5)-|----7-5-7-(5)-|----7-5-7-(5)-|
|--------------|--------------|--------------|
|-5------------|-5------------|-5------------|


|--------------|--------------|--------------|
|----7-5-7-(5)-|----7-5-7-(5)-|----7-5-7-(5)-|
|--------------|--------------|--------------|
|-5------------|-5------------|-5------------|


|--------------|--------------|--------------|
|----7-5-7-(5)-|----7-5-7-(5)-|----7-5-7-(5)-|
|--------------|--------------|--------------|
|-5------------|-5------------|-5------------|


                                  Guitar Solo
|--------------|----------------||----------------|
|----7-5-7-(5)-|-5s7--7-5-7-(5)-||-----7-5-7-(5)--|
|--------------|----------------||----------------|
|-5------------|----------------||-5-5------------|


|--------------|-------------------|-----------------|--------------|
|----7-5-7-(5)-|-5-(5)-7-7-5-7-(5)-|---(5)-7-5-7-(5)-|----7-5-7-(5)-|
|--------------|-------------------|-----------------|--------------|
|-5------------|-------------------|-5---------------|-5------------|


|------------|-----------------|--------------|--------------|
|----7-5-7---|------7-(5)-(7)--|----7-5-7-(5)-|----7-5-7-(5)-|
|------------|-----------------|--------------|--------------|
|-5--------5-|-(5)-------------|-5------------|-5------------|


|--------------|--------------|--------------|
|----7-5-7-(5)-|----7-5-7-(5)-|----7-5-7-(5)-|
|--------------|--------------|--------------|
|-5------------|-5------------|-5------------|


|--------------|--------------|--------------|
|----7-5-7-(5)-|----7-5-7-(5)-|----7-5-7-(5)-|
|--------------|--------------|--------------|
|-5------------|-5------------|-5------------|


|--------------|--------------|--------------|
|----7-5-7-(5)-|----7-5-7-(5)-|----7-5-7-(5)-|
|--------------|--------------|--------------|
|-5------------|-5------------|-5------------|


|--------------|--------------|--------------|
|----7-5-7-(5)-|----7-5-7-(5)-|----7-5-7-(5)-|
|--------------|--------------|--------------|
|-5------------|-5------------|-5------------|


|----------|----------|-------------||
|----7-----|----------|----7-(5)----||
|----------|----------|-------------||
|-5-----5--|-5--5--5--|-5--------5--||


 Verse
|-----------|--------------|----------|
|-----------|--------------|----------|
|--------7--|--------5-----|-5--6--7--|
|-5--/9-----|-3--/7----(7)-|----------|


|-------------|----------------|---------------|
|---5-5-7-(5)-|----7-7-5-7-(5)-|----7-5-7-(5)--|
|-------------|----------------|---------------|
|-------------|-5--------------|-5-------------|


|--------------|----------|-------------|
|----7-5-7-(5)-|----------|-------------|
|--------------|-------7--|-------5-----|
|-5------------|-5S=9-----|-3S=7----(7)-|


|----------|------------------|------------------|
|----------|----5-(5)-5-7-(5)-|----5-(5)-5-7-(5)-|
|-5--6--7--|------------------|------------------|
|----------|-5----------------|-5----------------|


|--------------|----------------|-----------|
|----7-(5)-7-5-|----7-7-5-7-(5)-|-----------|
|--------------|----------------|--------2--|
|-5------------|-5--------------|-0--/4-----|


|--------------|-----------|------------|
|--------------|-----------|------------|
|--------5-----|-5---3-5-3-|-5---2-3-2--|
|-3--/7----(7)-|-----------|------------|


|-------------|-------------|-----------|--------------|----------|
|-------------|-------------|-----------|--------------|----------|
|-3-2-3-2-----|-------------|--------7--|--------5-----|-5--6--7--|
|---------3-2-|-3-2-3-2-3-2-|-5--/9-----|-3--/7----(7)-|----------|


|-------|----------|-------|----------|-----|
|-------|-5--6--7--|-------|----------|-----|
|-------|----------|-------|-5--6--7--|-----|
|-------|----------|-------|----------|-----|


                     Outro
|----------|-------||----------|----------|----------|
|-5--6--7--|-------||----------|-5--6--7--|----------|
|----------|-------||-5--6--7--|----------|-5--6--7--|
|----------|-------||----------|----------|----------|


|----------|----------|-------|----------|-----|
|-5--6--7--|----------|-------|-5--6--7--|-----|
|----------|-5--6--7--|-------|----------|-----|
|----------|----------|-------|----------|-----|


|----------|-------|----------|-----|
|----------|-------|-5--6--7--|-----|
|-5--6--7--|-------|----------|-----|
|----------|-------|----------|-----|


|----------|----------|----------|----------|
|----------|-5--6--7--|----------|-5--6--7--|
|-5--6--7--|----------|-5--6--7--|----------|
|----------|----------|----------|----------|


|----------|-------|----------|-----|
|----------|-------|-5--6--7--|-----|
|-5--6--7--|-------|----------|-----|
|----------|-------|----------|-----|


|----------|-------|----------|-------|----------|
|----------|-------|-5--6--7--|-------|----------|
|-5--6--7--|-------|----------|-------|-5--6--7--|
|----------|-------|----------|-------|----------|


|----------|----------|----------|----------|----------|
|-5--6--7--|----------|-5--6--7--|----------|-5--6--7--|
|----------|-5--6--7--|----------|-5--6--7--|----------|
|----------|----------|----------|----------|----------|


|----------|----------|----------|----------|
|----------|-5--6--7--|----------|-5--6--7--|
|-5--6--7--|----------|-5--6--7--|----------|
|----------|----------|----------|----------|


|----------|----------|----------|----------|
|----------|-5--6--7--|----------|-5--6--7--|
|-5--6--7--|----------|-5--6--7--|----------|
|----------|----------|----------|----------|


|--------------|--------|--------|------|
|-----5h7-(7)--|--------|--------|------|
|-5h7----------|--------|--------|------|
|--------------|-5------|-5------|-5----|

Free Time
  TP        TP         TP         TP
|--------:----------:----------:----------:
|--------:----------:----------:----------:
|--------:----------:----------:----------:
|-5------:-(5)------:-(5)------:-(5)------:


   TP         TP         TP
|----------:----------:----------:-----*|
|----------:----------:----------:-----*|
|----------:----------:----------:-----*|
|-(5)------:-(5)------:-(5)------:-----*|



***************************************************************************************
* Generated using Power Tab Editor by Brad Larsen - http://powertab.guitarnetwork.org *
***************************************************************************************
Suggest correction
Give kudos to tab author, rate the tab!
1 2 3 4 5
comments
print report bad tab
2 comments total.
0 reply
lbra73 658 Mar 25, 2012 09:28 PM

tab is too long , you gotta condense it a bit

0 reply
drsativa 31 May 25, 2013 10:35 PM

excellent tab. not too long at all and in the correct key (Eb)

guest
You may want to rate the tab now too:
select rating
Wanna post a correction for this tab? Suggest correction