Oops, an error
Loading. Please wait.

Manic Depression Tab

version 2
version 2

Whole song

Interactive

36,167 views 54 this week
2 commentsread comments
1 2 3 4 5
x 15
add to favorites
launch autoscroll
font size
0
reset
how to read this tab
guitar tuner
Autoscroll
slow
fast
+/-
esc
set tempo
stop
Help us to improve Ultimate-Guitar.com Take our survey!
×
Author
MANIC DEPRESSION
                   As recorded by The Jimi Hendrix Experience
                   (From the 1967 Album ARE YOU EXPERIENCED ?)

Transcribed by www.mikesguitarsite.co.uk

 [Intro]
   Q=152(8=s8)
  3/4
   Gtr I
e|----------|-------|----------||-------------|-------------||
B|----------|-------|----------||o------------|------------o||
G|----------|-------|----------||-------------|-------------||
D|----------|-------|-5--6--7--||-----7-5-7-5-|----7-5-7-5--||
A|-5--6--7--|-------|----------||o-0----------|-0----------o||
E|----------|-------|----------||-------------|-------------||


 [Verse 1]
                ~
e|------------|-------------|----------|------------|
B|------------|-------------|----------|------------|
G|------------|-------------|----------|------------|
D|------------|-------------|----------|-5--7-5-7-5-|
A|---------7--|---------5---|-5--6--7--|-0----------|
E|-5--7s9-----|-3--5s7----7-|----------|------------|


                                 ~
                 3x                                                     3x
e||--------------||------------|-------------|----------||--------------||
B||o------------o||------------|-------------|----------||o------------o||
G||--------------||------------|-------------|----------||--------------||
D||-----7-5-7-5--||------------|-------------|----------||-----7-5-7-5--||
A||o-0----------o||---------7--|---------5---|-5--6--7--||o-0----------o||
E||--------------||-5--7s9-----|-3--5s7----7-|----------||--------------||


e|---------------|---------------|-------------|-----------|------------|
B|---------------|---------------|-------------|-----------|------------|
G|---------------|---------------|-------------|-----------|------------|
D|----7-(0)------|---------------|-------------|-----------|------------|
A|-0-------------|---------2p(0)-|---------5---|-5---3-5-3-|-5---2-3-2--|
E|----------11\--|-0--2s4--------|-3--5s7----7-|-----------|------------|


e|-------------|-------------|-------------|-------------|-----------|
B|-------------|-------------|-------------|-------------|-----------|
G|-------------|-------------|-------------|-------------|-----------|
D|-------------|-------------|-------------|-------------|-----------|
A|-3-2-3-2-----|-------------|---------7\--|---------5---|-5--6--7---|
E|---------3-2-|-3-2-3-2-3-2-|-5--7s9------|-3--5s7----7-|-----------|


e|-------|----------|------------|------------|-------------|
B|-------|----------|------------|------------|-------------|
G|-------|----------|------------|------------|-------------|
D|-------|-5--6--7--|----7-5-7-5-|-5--7-5-7-5-|----7-5-7-5--|
A|-------|----------|-0----------|-0----------|-0-----------|
E|-------|----------|------------|------------|-------------|


 [Verse 2]
e|---------------||-------------|-------------|----------|-------------------|
B|---------------||-------------|-------------|----------|----5----5---5-----|
G|---------------||-------------|-------------|----------|----7b9--7b9-7b9===|
D|-5--7-(0)------||-------------|-------------|----------|-------------------|
A|-0-------------||---------7\--|---------5---|-5--6--7--|-0-----------------|
E|----------15\--||-5--7s9------|-3--5s7----7-|----------|-------------------|


e|-----------------------|-----------------|
B|-(5)---5---(5)-5---(5)-|----5----5---(5)-|
G|-(7)r--7b9r(7)-7b9r(7)-|----7b9--7b9r(7)-|
D|-----------------------|-----------------|
A|--0--------------------|-0---------------|
E|-----------------------|-----------------|


e|-----------------|-------------|--------------|
B|----5----5---(5)-|-------------|--------------|
G|----7b9--7b9r(7)-|-------------|--------------|
D|-----------------|-------------|--------------|
A|-0---------------|---------7\--|---------5----|
E|-----------------|-5--7s9------|-3--5s7----7--|


e|----------|-----------------|-----------------|
B|----------|----5---5---5----|----5---(5)-5----|
G|----------|----7b9-7b9-7b9--|----7b9r(7)-7b9--|
D|----5-----|-----------------|-----------------|
A|-5--6--7--|-0---------------|-0---------------|
E|-3--------|-----------------|-----------------|


e|--------------|------------------|
B|----5----5----|------------------|
G|----7b9--7b9--|------------------|
D|--------------|---0--------------|
A|-0------------|-0----------------|
E|--------------|-----14S16S(8)\---|


e|------------|-----------|-----------|-----------|-------------|
B|------------|-----------|-----------|-----------|-------------|
G|------------|-----------|-----------|-----------|-------------|
D|------------|-----------|-----------|-----------|-------------|
A|---------2--|-------5---|-5---3-5-3-|-5---2-3-2-|-3-2-3-2-----|
E|-0--2s4-----|-3--7----3-|-----------|-----------|---------3-2-|


e|-------------|-------------|-------------|----------|-----------|
B|-------------|-------------|-------------|----------|-----------|
G|-------------|-------------|-------------|----------|-x--x--x---|
D|-------------|-------------|-------------|----------|-x--x--x---|
A|-------------|---------7\--|---------5---|-5--6--7--|-----------|
E|-3-2-3-2-3-2-|-5--7s9------|-3--5s7----7-|----------|-----------|


                                                  [Guitar Solo]
                                                   ~~~~
e|----------|----------|----------|-------------||---------|
B|----------|-x--x--x--|----------|-------------||-5-------|
G|----------|-x--x--x--|----------|-------------||-7b9=====|
D|-5--6--7--|-x--x--x--|----------|-5--6--7p(0)-||---------|
A|----------|----------|-5--6--7--|-------------||---------|
E|----------|----------|----------|-------------||---------|


    ~~~~~        ~~~~~~~~~~~~~~~~~~~~~~~~~~~~~~~~~~~~~~~~~~~~~~~~~~~~~~~~~~~
e|------------|-------------|------------|-------------|------------|----------|
B|-(5)s====7--|--8----------|--(8)-------|-12----------|-(12)-------|-15-------|
G|-(7)rs===9--|-10b12=======|=(10)r------|-14b16=======|=(14)r------|-17b19----|
D|------------|-------------|------------|-------------|------------|----------|
A|------------|-------------|------------|-------------|------------|----------|
E|------------|-------------|------------|-------------|------------|----------|


                                      ~~~~~~~~~~~~~~~~~~~~~~
e|------------------------|-----------------|--------------|
B|-15-----(15)------(15)--|-----------------|--------------|
G|-17b19r=(17)b19===(17)--|-17b21===(17)----|-(17)r--------|
D|------------------------|-----------------|--17b19=======|
A|------------------------|-----------------|--------------|
E|------------------------|-----------------|--------------|


  ~~~~~~~
e|---------------------|-----------------------|
B|---------------------|----------------xsx\---|
G|-------------17b21===|=(17)r---17b20==xsx\---|
D|-(17)r=(17)----------|---------17b18--xsx\---|
A|---------------------|--17b18----------------|
E|---------------------|-----------------------|


    ~~
e|---------------|-5---------(5)--5-|
B|-----------5-8-|-5-8b10====(8)r---|
G|-/5----7b9-----|------------------|
D|---------------|------------------|
A|---------------|------------------|
E|---------------|------------------|


e|-5-----------5-----8p5-|---8p5---8-5h7p5---5-5-----|
B|---8p5-----5---8p5-----|-5-----5---------8---8b10==|
G|-------7b9-------------|---------------------------|
D|-----------------------|---------------------------|
A|-----------------------|---------------------------|
E|-----------------------|---------------------------|


e|-(5)--5----------------------------|
B|-(8)r---8-5-----8p5----------------|
G|------------7b9-----7pb8r(7)-5---5-|
D|-------------------------------7---|
A|-----------------------------------|
E|-----------------------------------|


                              ~~~~~~~~~
e|---5----------8-10---10s12----|------15b16==(15)--(15)b17==(15)r-|
B|-5---8b10-/10-8h10p8-------10-|-(10)-15b16==(15)--(15)b17==(15)r-|
G|------------------------------|----------------------------------|
D|------------------------------|----------------------------------|
A|------------------------------|----------------------------------|
E|------------------------------|----------------------------------|


e|-(15)-15s7-[5]-17-17-|-17----17--------------17-------17-|
B|---------------------|-20b22----20b22==(20)r----20b21-17-|
G|---------------------|-----------------------------------|
D|---------------------|-----------------------------------|
A|---------------------|-----------------------------------|
E|---------------------|-----------------------------------|


e|-------17----------------------------------|
B|-20p17----17----20p17----17h20p17----20p17-|
G|----------19b21-------19----------20-------|
D|-------------------------------------------|
A|-------------------------------------------|
E|-------------------------------------------|


e|-------------------------------------------------|
B|-------------------20-------20-------20-------20-|
G|-19b21==(19)-(19)r----19b21----19b21----19b21----|
D|-------------------------------------------------|
A|-------------------------------------------------|
E|-------------------------------------------------|


e|----------------------------------------------|----------17-------17-20b22===|
B|-(20)-------20-------20-----------------------|-------17----20b22------------|
G|------19b21----19b21----19pb21r(19)-17-19b21==|=(19)r------------------------|
D|----------------------------------------------|------------------------------|
A|----------------------------------------------|------------------------------|
E|----------------------------------------------|------------------------------|


              ~~
e|-(20)r-----20-|------------------------17----(17)-|
B|--------------|-x-x-20-(20)b22===(20)r----20--17--|
G|--------------|-x-x-------------------------------|
D|--------------|-----------------------------------|
A|--------------|-----------------------------------|
E|--------------|-----------------------------------|


                                         ~~~~~~~~~~~~~~~~~~~~~~
e|----------------------------|---------------------|--------------------|
B|-------20-------20-------20-|---------------------|--------------------|
G|-19b21----19b21----19b21----|-19b21==(19)-(19)----|-(19)b22=====(19)r--|
D|----------------------------|---------------------|---------------x----|
A|----------------------------|---------------------|--------------------|
E|----------------------------|---------------------|--------------------|


             ~~~~~~~~~~~~~~~~~
e|-----------------|--------------------|
B|-----------------|--------------------|
G|-19b21===(19)----|-(19)b22=====(19)r--|
D|-----------------|---------------x----|
A|-----------------|--------------------|
E|-----------------|--------------------|


                                        ~~~~~~~~~~~~~~~~
e|------------------|----------------|---------|-----------||
B|------------------|-20-------------|---------|-----------||
G|-19b21===(19)r----|-------19b21-19-|-17------|-([17])----||
D|------------------|----------------|---------|-----------||
A|------------------|----------------|---------|-----------||
E|------------------|----------------|---------|-----------||


 [Verse 3]
                                                             ~~~~~~~~~
e|-------------|-------------|----------|--------------|----------------|
B|-------------|-------------|----------|----5----5----|-----5----5-----|
G|-------------|-------------|----------|----7b9--7b9--|-----7b9--7b9---|
D|-------------|-------------|----------|--------------|---0------------|
A|---------7\--|---------5---|-5--6--7--|-0------------|-0--------------|
E|-5--7s9------|-3--5s7----7-|----------|--------------|----------------|


e|----5----5-5------|-------------|-------------|-------------|-----------|
B|----8b10---8b10-5-|-5---5-5--5--|-------------|-------------|-----------|
G|------------------|-7b9---7--7--|-------------|-------------|-----------|
D|------------------|-------------|-------------|-------------|-----------|
A|-0----------------|-------------|---------7\--|---------5---|-5--6--7---|
E|------------------|-------------|-5--7s9------|-3--5s7----7-|-----------|


            ~~~
e|---------------|-----------------|
B|----5---5-5----|----5----5---(5)-|
G|----7b9---7b9--|----7b9--7b9r(7)-|
D|---------------|-----------------|
A|-0-------------|-0---------------|
E|---------------|-----------------|


e|----------------|-----------------|------------|
B|----5---5-5---5-|-----5\----------|------------|
G|----7b9---7b9---|-----7b9\--------|------------|
D|----------------|---0-------------|------------|
A|-0--------------|-0---------------|---------4--|
E|----------------|-----------/14\--|-0--2s4-----|


   ~
e|-----------|-----------|-----------|-------------|--------------|
B|-----------|-----------|-----------|-------------|--------------|
G|-----------|-----------|-----------|-------------|--------------|
D|-----------|-----------|-----------|-------------|--------------|
A|----2--5-2-|-5---3-5-3-|-5---2-3-2-|-3-2-3-2-3---|--------------|
E|-3---------|-----------|-----------|-----------2-|-3-2-3-2-3-0--|


e|-------------|---------------|----------|-----|
B|-------------|---------------|----------|-----|
G|-------------|---------------|----------|-----|
D|-------------|---------------|----------|-----|
A|---------7\--|---------5-----|-5--6--7--|-----|
E|-5--7s9------|-3--5s7----(7)-|----------|-----|


e|--------------|---------|----------|-----|
B|--------------|---------|----------|-----|
G|----(4)--(6)--|---------|----------|-----|
D|-5---6----7---|---------|----------|-----|
A|--------------|---------|-5--6--7--|-----|
E|--------------|---------|----------|-----|


e|------------|-------|----------|-----------|
B|------------|-------|----------|-----------|
G|-------(6)--|-------|----------|----6--7---|
D|-5--6---7---|-------|----------|-5--6--7---|
A|------------|-------|-5--6--7--|-----------|
E|------------|-------|----------|-----------|


e|----------|-----------|----------|-----------------|-------------|
B|----------|-----------|----------|-5-------(5)-(5)-|-------------|
G|----------|-----------|----------|-7b9=====(7)r(7)-|-4--(6)------|
D|----------|-5--6-6-7--|-5--5-----|-----------------|-5---6---7---|
A|-5--6--7--|-----------|-5--6--7--|-----------------|-------------|
E|----------|-----------|----------|-----------------|-------------|


              ~~~~                ~~~                    ~~~~~
e|-5-----(5)-(5)-----|----------|----------|-----------|-5--------(5)-(5)--|
B|-8b10==(8)-(8)r----|----------|-5--------|-----------|-8b10=====(8)r(8)--|
G|-------------------|-5--6-----|-7b9------|-----------|-------------------|
D|-------------------|-5--6--7--|----------|-5--6--7p0-|-------------------|
A|-------------------|----------|----------|-----------|-------------------|
E|-------------------|----------|----------|-----------|-------------------|


e|----------|----------|----------|-----------|-----------|
B|----------|----------|----------|-----------|-----------|
G|----------|----------|----------|-----------|-----------|
D|----------|-5--6--7--|----------|-5--6--7-7-|-----------|
A|-5--6--7--|----------|-5--6--7--|-----------|-5--6--7---|
E|----------|----------|----------|-----------|-----------|


e|-----------------|-------------|-----------------|
B|-5-------(5)-(5)-|-------------|-5-------(5)-(5)-|
G|-7b9=====(7)r(7)-|-4-----------|-7b9=====(7)r(7)-|
D|-----------------|-5--6--7s(0)-|-----------------|
A|-----------------|-------------|-----------------|
E|-----------------|-------------|-----------------|


e|-------------------|------------------|
B|-------------------|-5-------(5)-(5)--|
G|-------------------|-7b9=====(7)r(7)--|
D|-(5)--(5)-----(0)p-|------------------|
A|--5----6---7\------|------------------|
E|-------------------|------------------|


e|-----------|-5--------(5)---|----------|----------|-----------|
B|-----------|-8b10=====(8)r--|----------|----------|-----------|
G|-4--5--6p0-|----------------|----------|-4-----6--|-----------|
D|-5--6--7---|----------------|----5--6--|-5--6--7--|-------6---|
A|-----------|----------------|-5--6--7--|----------|-5--6--7---|
E|-----------|----------------|----------|----------|-----------|


                                        ~~~~~~~~~~~~~~~~~~~~~
e|--------------|----------|----------|-----------|------------|
B|--------------|----------|----------|-5---------|-5--5--5----|
G|-(4)-----(0)--|----------|-4--4--6--|-7b9=======|=7--7--7r---|
D|--5---6---7---|----------|-5--6--7--|-----------|------------|
A|--------------|-5--6--7--|----------|-----------|------------|
E|--------------|----------|----------|-----------|------------|


          ~~~~~~~~~~~~~~~~~~~~~~~~~~~~              ~~~~~~~~~~~~~~~
e|---------------------|------------------|-----------------------|
B|--8-----8--8-8--8--8-|--8-8--8-8--8--8--|-12-----12-12-12-12-12-|
G|-10b12====10---10-10-|-10---10---10-10r-|-14b16=====14-14-14-14-|
D|---------------------|------------------|-----------------------|
A|---------------------|------------------|-----------------------|
E|---------------------|------------------|-----------------------|


  ~~~~~~~~~~~~~~~~              ~~~~~~~~~~~~~~
e|--------------------|------------------------|
B|-12-12-12-12-12-12--|-15-----15-15-15-15-15--|
G|-14-14-14-14-14-14r-|-17b19=====17-17-17-17--|
D|--------------------|------------------------|
A|--------------------|------------------------|
E|--------------------|------------------------|


                                              H.=H
    ~~              ~~~~~~~~~~~~~~~~~~~~~
e|--------------|----------|---------|--------|---------------|------------:
B|-15--15\------|----------|---------|--------|---------------|------------:
G|-17--17r\--x--|---5------|---------|--------|---------------|------------:
D|-----------x--|-x--------|-7----7--|-5------|---------------|-0h2----2---:
A|--------------|----------|---------|--------|-5b6===(5)r----|---0----0---:
E|--------------|----------|---------|--------|---------------|------------:


  4/4        3/4
e|----------:----------:------------:
B|----------:----------:------------:
G|-0--------:-(0)------:-([0])------:
D|----------:----------:------------:
A|----------:----------:------------:
E|----------:----------:------------:


            H=H
                                   4/4
                          >
e|----------:----------:----------:------------*|
B|----------:----------:----------:------------*|
G|-(0)------:-(0)------:-(0)------:-(0)--------*|
D|----------:----------:----------:------------*|
A|----------:----------:----------:------------*|
E|----------:----------:----------:------------*|



************************************

| ~    Vibrato
| (n)  Ghost note
| \    Slide down
| b    Bend
| x    Dead note
| /    Slide up
| h    Hammer-on
| p    Pull-off
| pb   Pre-bend
| [n]  Artificial harmonic
| r    Release
| *    Natural harmonic
| >    Accented note
| s    slide

************************************
Suggest correction
comments
print report bad tab
2 comments total. show 1 bad comment
0 reply
metallica_spawn 10 Dec 21, 2006 08:44 PM

its alrite

guest
You may want to rate the tab now too:
select rating
Wanna post a correction for this tab? Suggest correction