Oops, an error
Loading. Please wait.

Manic Depression Bass Tab

version 3
version 3

Whole song

Interactive

1,335 views 6 this week
no commentswrite comment
1 2 3 4 5
accurate
x 1
add to favorites
launch autoscroll
font size
0
reset
guitar tuner
Tab Pro tools
  • play this tab
  • loop segment
  • change instrument
  • show fretboard
  • metronome
×
Best way to learn
"Manic Depression"
Autoscroll
slow
fast
+/-
esc
set tempo
stop
Contributor
Tuning
D# G# C# F# A# D#
Manic Depression
Jimi Hendrix
Bass Tabs
by David Caraccio

Video - http://www.youtube.com/watch?v=ws8cy48vaCw

X= Ghost note
T= Thumb down stroke
t= Thumb up stroke
P= Pop


Intro:

Gb|--------|------|---------|----------|
Db|--------|------|--5-6-7--|---7-5-7-5|
Ab|--5-6-7-|------|---------|-0--------|
Eb|--------|------|---------|----------|

Gb|------------|-----------|------------|
Db|---7-5-7-5--|---7-5-7-5-|---7-5-7-5--|
Ab|-0---------7|-0---------|-0---------7|
Eb|------------|-----------|------------|


Verse:

Gb|--------|--------|---------|----------|
Db|--------|--------|---------|---7-5-7-5|
Ab|-0-4--7-|---2--5-|--X5-6-7-|-0--------|
Eb|--------|-3------|---------|----------|
                                                X2
Gb|------------|-----------|------------|
Db|---7-5-7-5--|---7-5-7-5-|---7-5-7-5--| 
Ab|-0---------7|-0---------|-0---------7|
Eb|------------|-----------|------------|


Chorus:

Gb|--------|--------|--------------|
Db|--------|--------|--------------|
Ab|------2-|---2--5-|--5---4-5-4-5-|
Eb|-0-4----|-3------|--------------|

Gb|----------------|-----------------|
Db|----------------|-----------------|
Ab|-2--3-2-3-2-3-2-|-----------------|
Eb|----------------|-3-2-3-2-3-2-3-2-|

Gb|--------|--------|--------|-----|-------|
Db|---4--7-|--------|--------|-----|--5-6-7|
Ab|-0------|---2--5-|--5-6-7-|-----|-------|
Eb|--------|-3------|--------|-----|-------|


Bass Fills:
You can play them in any order
Gb|----------|------------|--------------|
Db|---7-5-7-5|---7-5-7-5--|---5----------|
Ab|-0--------|-0---------7|-0---7-6-5-3--|
Eb|----------|------------|-------------3|

Gb|--------------|---5----------|
Db|---7-5--------|-----7-5------|
Ab|-0-----7-6-5-3|-0-------7-5-3|
Eb|--------------|--------------|

Double Thumping Thingie:

    T t P T t P T  T  t  P  T  t  P  T
Gb|-----7-----8--|-------12-------13---|
Db|--------------|---------------------|
Ab|-5-5---6-6---7|-10-10----11-11----12|
Eb|--------------|---------------------|


With reservation for potential errors, tabbing is hard work!
Thanks for your support & please don't forget to subscribe to the Gentlemen's Bass 
Club channel! ;)
comments
We did not receive enough feedback on this tab! Please rate:
print report bad tab
1 2 3 4 5
I want to post or [tab]
guest
You may want to rate the tab now too:
select rating
Please do not post tabs as comments. Select "correction" instead!