Oops, an error
Loading. Please wait.
We have an official Manic Depression tab made by UG professional guitarists. Check out the tab »
×
691 views 1 this week
no commentswrite comment
1 2 3 4 5
2 more votes to show rating
add to favorites
×
Save as Personal and add changes to this tab that will be seen only by you. Learn more ›
×
You can save this tab as Personal to edit and correct it or add notes. All changes will be seen only by you. Learn more »
launch autoscroll
font size
0
reset
how to read this tab
guitar tuner
backing track
0:00
0:00
edit
Autoscroll
slow
fast
+/-
esc
set tempo
stop
Author
Difficulty
-------------------------------------------------------------------------------
               Manic Depression - The Jimi Hendrix Experience
-------------------------------------------------------------------------------

Tabbed by: Aeonoptic
E-mail: aeonoptic@gmail.com

Tuning: Eb Ab Db Gb Bb Eb 

Intro
                  A
e|-------|-------|----------|----------|----------|----------|
B|-------|-------|----------|----------|----------|----------|
G|-------|-------|----------|----------|----------|----------|
D|-------|5--6--7|---7-5-7-5|---7-5-7-5|---7-5-7-5|---7-5-7-5|
A|5--6--7|-------|----------|----------|----------|----------|
E|-------|-------|5---------|5---------|5---------|5---------|

Lead playing is according to the chords above lyrics

A      G            D    Eb   E  A
Manic depression is searching my soul
A             G
I know what I want
    D  Eb  E     A
But I just don't know
How to go about getting it

  A       G         D  Eb E A
e|-------|---------|-------|----------|----------|----------|----------|
B|-------|---------|-------|----------|----------|----------|----------|
G|-------|---------|-------|----------|----------|----------|----------|
D|-------|---------|-------|---7-5-7-5|---7-5-7-5|---7-5-7-5|---7-5-7-5|
A|---4--7|---2--5-3|5--6--7|----------|----------|----------|----------|
E|5------|3--------|-------|5---------|5---------|5---------|5---------|

E             G
Feeling sweet feeling
C                     Bb      G
Drops from my fingers fingers
A        G          D  Eb    E
Manic depression is captured my soul

  E       G       C             Bb           G               A       G       D  Eb E         G  G# A
e|-------|-------|--------|----|---------|-----------|------|-------|-------|-------|-------|-------|
B|-------|-------|--------|----|---------|-----------|------|-------|-------|-------|-------|-------|
G|-------|-------|--------|----|---------|-----------|------|-------|-------|-------|-------|-------|
D|-------|-------|--------|----|---------|-----------|------|-------|-------|-------|-------|5--6--7|
A|------2|---2--5|5----3-5|3--5|2-3-1-3-1|3-1--------|------|---4--7|---2--5|5--6--7|-------|-------|
E|0--h4--|3------|--------|----|---------|----3-2-3-2|3-2--3|5------|3------|-------|-------|-------|

e|----------|
B|----------|
G|----------|
D|---7-5-7-5|
A|----------| x4
E|5---------|
 
A        G       D   Eb    E             A
Woman so willing the sweet cause in vain
A
You make love 
G
You break love
D  Eb E             A
It's a all the same, when it's
When it's over

  A       G         D  Eb E A
e|-------|---------|-------|------------|-------------|-------------|-------------|
B|-------|---------|-------|---5----5---|----5----5---|----5----5---|----5----5---|
G|-------|---------|-------|---7b9--7br9|----7b9--7br9|----7b9--7br9|----7b9--7br9|
D|-------|---------|-------|------------|-------------|-------------|-------------|
A|---4--7|---2--5-3|5--6--7|------------|-------------|-------------|-------------|
E|5------|3--------|-------|0-----------|-------------|-------------|-------------|

  A       G         D  Eb E A
e|-------|---------|-------|------------|-------------|-------------|-------|
B|-------|---------|-------|---5----5---|----5----5---|----5----5---|-------|
G|-------|---------|-------|---7b9--7br9|----7b9--7br9|----7b9--7br9|-------|
D|-------|---------|-------|------------|-------------|-------------|-------|
A|---4--7|---2--5-3|5--6--7|------------|-------------|-------------|-------|
E|5------|3--------|-------|0-----------|-------------|-------------|---\17-|

E              G
Music sweet music
C                     Bb           G
I wish I could caress caress caress
A        G            D   Eb  E       G G# A
Manic depression is a frustrating mess
Oh!

  E       G       C             Bb           G               A       G       D  Eb E G  G# A
e|-------|-------|--------|----|---------|-----------|------|-------|-------|-------|-------|x--x--x|
B|-------|-------|--------|----|---------|-----------|------|-------|-------|-------|-------|x--x--x|
G|-------|-------|--------|----|---------|-----------|------|-------|-------|-------|-------|x--x--x|
D|-------|-------|--------|----|---------|-----------|------|-------|-------|-------|5--6--7|x--x--x|
A|------2|---2--5|5----3-5|3--5|2-3-1-3-1|3-1--------|------|---4--7|---2--5|5--6--7|-------|-------|
E|0--4---|3------|--------|----|---------|----3-2-3-2|3-2--3|5------|3------|-------|-------|-------|

e|-------|-------|
B|-------|-------|
G|-------|-------|
D|-------|5--6--7|
A|5--6--7|-------|
E|-------|-------|

 Solo
e|----------|
B|----------|
G|----------|
D|---7-5-7-5|
A|----------| (repeats beneath on bass)
E|5---------|

e|-----|-------|-------|10-----|10-----|12-----|------|------5-5---|5-----------5|----8p5---8p5---8p5|
B|5----|8------|12-----|12b14~~|12brb14|14b16~~|------|----5---8b10|--8-5-----5--|8-5-----5-----5----|
G|7b9~~|10b12~~|14b16~~|-------|-------|-------|3/5~~~|7b9---------|------7b9----|-------------------|
D|-----|-------|-------|-------|-------|-------|------|------------|-------------|-------------------|
A|-----|-------|-------|-------|-------|-------|------|------------|-------------|-------------------|
E|-----|-------|-------|-------|-------|-------|------|------------|-------------|-------------------|

e|7-5---5-5---|5----------------|---------------5-----|-------10b12-----|17--------|
B|----8---8b10|--8p5-5-----5-8-5|-------------5---8b10|--8-10-------10~~|20b22--20\|
G|------------|--------7b9------|7br9p5---7b9---------|9----------------|----------|
D|------------|-----------------|-------7-------------|-----------------|----------|
A|------------|-----------------|---------------------|-----------------|----------|
E|------------|-----------------|---------------------|-----------------|----------|

e|17-17-17--------|17-------17------------------------------------|-----------|
B|---------20b22~~|---20b22----20p17-------17-19p17-------17-19p17|17---------|
G|----------------|------------------19b21----------19b21---------|---19b21~~~|
D|----------------|-----------------------------------------------|-----------|
A|----------------|-----------------------------------------------|-----------|
E|----------------|-----------------------------------------------|-----------|


e|--------------------------------------|---------------------------|---17----17-20b22--20~~|
B|20-------20-------20-------20-------20|------20-------------------|17----20---------------|
G|---19b21----19b21----19b21----19b21---|19b21----19br21-17-19-19b21|-----------------------|
D|--------------------------------------|---------------------------|-----------------------|
A|--------------------------------------|---------------------------|-----------------------|
E|--------------------------------------|---------------------------|-----------------------|


e|---------------------|-------------------------|----------|-------|----------|-------------|
B|20b22--20-17-------20|------20-------20--------|----------|-------|----------|-----------20|
G|-------------19b21---|19b21----19b21----19b21~~|(19b21)~~~|19b21~~|(19b21)~~~|19b21~~~-----|
D|---------------------|-------------------------|----------|-------|----------|-------------|
A|---------------------|-------------------------|----------|-------|----------|-------------|
E|---------------------|-------------------------|----------|-------|----------|-------------|

e|---------------|
B|---------------|
G|19b21-19--17~~~|
D|---------------|
A|---------------|
E|---------------|

A                    G               D Eb E      A     
Well I think I'll go turn myself off and a go on down
All the way down
A               G         D   Eb  E
Really ain't no use in me hanging around
A
Oh, I gotta see you
        
  A       G         D  Eb E A
e|-------|---------|-------|----------|--------|-----5----------|--------------|
B|-------|---------|-------|5---5-----|5----5--|8b10----8pbr10-5|5---8-5-------|
G|-------|---------|-------|7b9----7b9|7b9--7b9|----------------|7b9---7b9--7~~|
D|-------|---------|-------|----------|--------|----------------|--------------|
A|---4--7|---2--5-3|5--6--7|----------|--------|----------------|--------------|
E|5------|3--------|-------|----------|--------|----------------|--------------|

  A       G         D  Eb E A
e|-------|---------|-------|------------|-------------|-------------|---------|
B|-------|---------|-------|---5----5---|----5----5---|----5----5---|----5----|
G|-------|---------|-------|---7b9--7br9|----7b9--7br9|----7b9--7br9|----7b9--|
D|-------|---------|-------|------------|-------------|-------------|---------|
A|---4--7|---2--5-3|5--6--7|------------|-------------|-------------|---------|
E|5------|3--------|-------|0-----------|-------------|-------------|---------|

E              G
Music sweet music
C                     Bb           G
I wish I could caress and kiss, kiss
A        G            D   Eb  E       G G# A
Manic depression is a frustrating mess
Oh!

  E       G       C             Bb           G               A       G         D  Eb E       G  G# A
                                                                                                     owh!
e|-------|-------|--------|----|---------|-----------|------|-------|-------|-------|-------|-------|-------|
B|-------|-------|--------|----|---------|-----------|------|-------|-------|-------|-------|-------|-------|
G|-------|-------|--------|----|---------|-----------|------|-------|-------|-------|-------|-------|-------|
D|-------|-------|--------|----|---------|-----------|------|-------|-------|-------|-------|5--6--7|-------|
A|------2|---2--5|5----3-5|3--5|2-3-1-3-1|3-1--------|------|---4--7|---2--5|5--6--7|-------|-------|-------|
E|0--h4--|3------|--------|----|---------|----3-2-3-2|3-2--3|5------|3------|-------|-------|-------|-------|

          yeah!           owh!
e|-------|-------|-------|-------|-------|-------|-------|-------|-------|------|-------|5------|
B|-------|-------|-------|-------|-------|-------|-------|-------|-------|5-----|-------|8b10~~~|
G|-------|-------|-------|-------|-------|-------|-------|-------|-------|7b9~~~|-------|-------|
D|-------|-------|5--6--7|-------|-------|5--6--7|-------|5--6--7|-------|------|5--6--7|-------|
A|5--6--7|-------|-------|-------|5--6--7|-------|5--6--7|-------|5--6--7|------|-------|-------|
E|-------|-------|-------|-------|-------|-------|-------|-------|-------|------|-------|-------|


e|-------|------|-------|5------|-------|-------|-------|-------|-------|------|-------|------|
B|-------|5-----|-------|8b10~~~|-------|-------|-------|-------|-------|5-----|-------|5-----|
G|-------|7b9~~~|-------|-------|-------|-------|-------|-------|-------|7b9~~~|-------|7b9~~~|
D|-------|------|5--6--7|-------|-------|5--6--7|-------|5--6--7|-------|------|5--6--7|------|
A|5--6--7|------|-------|-------|5--6--7|-------|5--6--7|-------|5--6--7|------|-------|------|
E|-------|------|-------|-------|-------|-------|-------|-------|-------|------|-------|------|


e|-------|------|-------|5------|-------|-------|-------|-------|-------|-------|
B|-------|5-----|-------|8b10~~~|-------|-------|-------|-------|-------|-------|
G|-------|7b9~~~|-------|-------|-------|-------|-------|-------|-------|-------|
D|-------|------|5--6--7|-------|-------|5--6--7|-------|5--6--7|-------|5--6--7|
A|5--6--7|------|-------|-------|5--6--7|-------|5--6--7|-------|5--6--7|-------|
E|-------|------|-------|-------|-------|-------|-------|-------|-------|-------|

                                                                                                *feedback*
e|-----------|-----------|-----------------|--------------------|------|-----|-----|----|----|
B|5-5-5-5-5-5|8-8-8-8-8-8|12-12-12-12-12-12|15-15-15-15-15-15-15|------|-----|-----|----|----|
G|7b9~~~~----|10b12~~~~--|14b16~~~~--------|17b19~~~~-----------|/5~~~~|-----|-----|----|----|
D|-----------|-----------|-----------------|--------------------|------|7~~~~|5~~~~|----|----|
A|-----------|-----------|-----------------|--------------------|------|-----|-----|5b6~|----|
E|-----------|-----------|-----------------|--------------------|------|-----|-----|----|5~~~|

************************************

| /   slide up 
| \   slide down
| h   hammer-on
| p   pull-off
| ~   vibrato
| +   harmonic
| x   Mute note
| b   Bend
| pb  Pre-bend
| br  Bend release
| pbr Pre-bend release
| brb Bend release bend

************************************

            
            
Suggest correction
Creating personal tab
Creating personal tab
You can edit any tab online and save it as your Personal.

You can edit, replace or remove any tab part or add personal notes – all changes will be seen only by you.

Personal tabs can be accessed anytime from any device, even offline.
Learn more »
Give kudos to tab author, rate the tab!
1 2 3 4 5
comments
print report bad tab
guest
You may want to rate the tab now too:
select rating
Wanna post a correction for this tab? Suggest correction