Oops, an error
Loading. Please wait.

May This Be Love Tab

version 2
version 2

Solo

Whole song

Interactive

9,228 views 24 this week
no commentswrite comment
1 2 3 4 5
excellent!
x 3
add to favorites
launch autoscroll
font size
0
reset
how to read this tab
guitar tuner
Tab Pro tools
  • play this tab
  • loop segment
  • change instrument
  • show fretboard
  • metronome
Autoscroll
slow
fast
+/-
esc
set tempo
stop
Contributor
Difficulty
Tuning
intermediate
D# G# C# F# A# D#
-------------------------------------------------------------------------------
                             May this be love - Jimi Hendrix
-------------------------------------------------------------------------------
incredibly awesome song.
I didn't like the other tab for this so i decided to take the time.
you want to let the low and high Eb ring through the whole verse.
i didn't bother with the second or third verse(only "slightly" different) , or the 
solo (other tab on here has it)


Tuning:Eb Bb Gb Db Ab Eb

intro - free time
w/slide
eb|--5/----------20\19--------------------------------------------------------|
Bb|---------10/--------18\17-----------15---14----------------11\10-----------|
Gb|--5/-------------------------16\15-----------13\12-------------------------|
Db|----------------------------------------------------12\11------------------|
Ab|---------------------------------------------------------------------------|
Eb|---------------------------------------------------------------------------|

eb|---------------------------------------------------------------------------|
Bb|-------9-------------------------------4-----4\3--3-----3------------------|
Gb|--10------8--8/9---8---7------6---5\--------------3-----------6-----5--5\4-|
Db|-----9-------------------7\6--6---5\------4----3--------------6-----5--5\4-|
Ab|-----------------------------------------------------3-----0-----6---------|
Eb|---------------------------------------------------------------------------|

Verse
    E
      wa-ter - fall_______                               noth - ing   can   
eb|-------------------------2-------0--|--------------------------------------|
Bb|---------------------------------0--|-----0--------------------------------|
Gb|---------------------------------1--|-----1---1----------------------------|
Db|--------------(2)R0----------2------|---------------2-2h4r2----------------|
Ab|-----------2----------2-------------|------------2-----------2--2-------2--|
Eb|-0-----0----------------------------|-0----------------------------4r0-----|
    F#m7(add4)/E
    harm_          me at all__                              my  wor-ries  seem
eb|---------------0--------------------|------0-------------------------------|
Bb|----------(4))---0------------------|------0-----------0-------------------|
Gb|--------2----------2------0---------|------2-----2-----2-------------------|
Db|-4---4--------------------------2h4-|--(4)----4-----4----2h4--2h4r2--------|
Ab|----------------------------2h4-----|-------------------------------2h4-2--|
Eb|-0----------------------------------|--------------------------------------|
    A add2
        so_   ver - y     small___                   with my   wa     -  ter
eb|-----------------------------5------|--------------------------------------|
Bb|-----------2h5r2---------------2----|--------------------------------------|
Gb|-------4---------4---------------4--|-------4-----4/6---4-----X--2----2--2-|
Db|-------------------------4----------|--2h4-----4--4/6---4---2----2h4-------|
Ab|--0--------------------0------------|--------------------------------------|
Eb|------------------------------------|--------------------------------------|
    E 
    fall.  
eb|------------------------------------|--0-----------------------------------|
Bb|----------0-------0-----------------|--0-----------------------------------|
Gb|--1-1--1--1-1--1--1--1--1---1--1----|--1-----------------------------------|
Db|--2-2--2----2--2--2--2--2---2--2--2-|--2-----------------------------------|
Ab|---------------------2----2---------|--------------------------------------|
Eb|0-----------------------------------|--------------------------------------|
 
licks between verses
                        muted
eb|---3/14-------|------14X----------|
ab|--------------|--------14X--------|
Gb|--------------|----------14X------|
Db|--------------|-------------------|
Ab|--------------|-------------------|
Eb|--------------|-------------------|

Bridge
    D                                     A                     G#  A   A#
              some peo-ple   say          day-dreaming's for all the HUH
eb|------------------------------------|--------------------5---4---5---6----|
Bb|--7--------7--7--x--------7---------|--5-----------------5---4---5---6----|
Gb|--7--------7--7--x--------7--x--x---|--6-----------------6---5---6---7----|
Db|--7---7/9--7--7--x--9--9--7--x--x---|--7--------7--------7---6---7---8----|
Ab|--5---7/9-----------9--9-----x--x---|--x--------7------------x---x---x----|
Eb|------------------------------------|--5---7/9-----5---------4---5---6----|
    B                                     E5
              la-zy   mind-ed     fools______________     with noth-ing else_
eb|-7----------------------------------|-------------------------------------|
Bb|-7-------------7--------------------|--------------------------(7)--------|
Gb|-8-------------8-------(0)-----x--x-|------------9-------7------7---------|
Db|-9----------9--9---------------x--x-|------9--9--9---7h9---7h9-----7h9----|
Ab|-x------11--9---------------9--x--x-|---7-----7---------------------------|
Eb|-7-9/11------------7-9/11-----------|-------------------------------------|
   E5                                     D
   ____to ___   do____                        so let them laugh
eb|------------------------------------|-------------------------------------|
Bb|------------------------------------|----------7--------------------------|
Gb|-------9------7------7------7-----7-|----------7--7----7------------------|
Db|----9----7h9----7h9----7h9----7h9---|----------7--7----7-------9-7--------|
Ab|-7----------------------------------|--5---7h9----5----5--7h9------9\7--5-|
Eb|------------------------------------|-------------------------------------|
   A                                    F# 
    laugh__at__me                           so    just as long__as i have you      
eb|---------------------7----4----3----|-2-------2~~~~~~---------------------|
Bb|---------------------5----4----3----|-2----2---------2--------------------|
Gb|---------------6-----6----5----4----|-3-------2/3\2--3-----------3--------|
Db|---------7-----7-----7----6----5----|-4-----------------4--4--4--4--------|
Ab|---------7-----x----------x----x----|-x-----------------------4-----------|
Eb|--5/9----------5----------4----3----|-2-----------------------------2-4/7-|
   D                                     A   
                          to  see  me    through          i have _ nothing to
eb|------------------------------------|----------------------5--5/7-5---7r5-|
Bb|------------------------------------|----------------------5--5---5-------|
Gb|----7--7----7---7---------7----7----|-----6--6--6---6---6-----6---6-------|
Db|----7----7----7--------7--9\7--7----|-----7--7--7---7---7-----7---7-------|
Ab|-5-------5--------7/9------------9\-|--------x----------------------------|
Eb|------------------------------------|-5------5----5---5-------------------|

   B
   lose                                                long as i _ have 
eb|------------------------------------|-7h9--7---7-----------------7--------|
Bb|-------7---7-------7--------7----7--|-7----7---7-----------------7-7------|
Gb|/8-----8-8-8---8---8---8-8--8----8--|-8----8---8---------8-8---8-8-8----8-|
Db|/9--9----9-9-9-9-9-9-9-9-9--9-9--9--|-9------9---9-------9-9-9-9-9----9-9-|
Ab|/x--x----x---x---x---x-9------9-----|------------9-9-----9-9-x--------9-9-|
Eb|/7--7----7---7---7---7--------------|----------------7-7-----7--------7---|
   
   you
eb|----------------7-----7-------------|-------------------------------------|
Bb|----7-7---------7-7---7--7----------|--7----------------------------------|
Gb|----8-8-8---8-8-8-8-8-8--8-----8----|--8----------------------------------|
Db|----9-9-9-9-9-9-9-9-9-9--9--9--9----|--9----------------------------------|
Ab|------x---x---9-------9-----9--9----|--x----------------------------------|
Eb|-7----7---7---7-------7-----7-------|--7----------------------------------|

verse 1
waterfall , nothing can harm me at all,
my worries seem so very small
with my waterfall

verse 2
I can see my rainbow calling me
through the misty breeze
of my waterfall

bridge
some people say day-dreaming's
for all the HUH lazy minded fools
with nothin else to do

so let them laugh , laugh at me ,
so just as long as i have you
to see me through ,
i have nothing to lose 
'long as i have you

verse 3
waterfall , don't ever change your ways.
fall with me for a million days
oh , my waterfall

solo
************************************

| /   slide up
| \   slide down
| h   hammer-on
| p   pull-off
| ~   vibrato
| +   harmonic
| x   Mute note
| b   Bend
| pb  Pre-bend
| br  Bend release
| pbr Pre-bend release
| brb Bend release bend

************************************
comments
We did not receive enough feedback on this tab! Please rate:
print report bad tab
1 2 3 4 5
I want to post or [tab]
guest
You may want to rate the tab now too:
select rating
Please do not post tabs as comments. Select "correction" instead!