Oops, an error
Loading. Please wait.

Message Of Love Bass Tab

version 1
version 1

Whole song

Interactive

2,392 views 3 this week
no commentswrite comment
1 2 3 4 5
please rate
add to favorites
launch autoscroll
font size
0
reset
guitar tuner
Tab Pro tools
  • play this tab
  • loop segment
  • change instrument
  • show fretboard
  • metronome
×
Best way to learn
"Message Of Love"
Autoscroll
slow
fast
+/-
esc
set tempo
stop
Contributor
Message Of Love - Jimi Hendrix

READ THIS FIRST!!!!
This is not exact. it should help you get a basic idea for the song however
Please deel free to correct me and what not.

Tuning - Eb, Ab, Db, Gb

Intro
G-------------------------------------------------------------|
D-------------------------------------------------------------|
A-00-11-22-33-44-55-66-77-88-99-1010-1111-1212-1313-1414-1515-|
E-------------------------------------------------------------|

Verse 4x
G--------12-----------------------------------|
D-10-9-------------------12-12-12-12----------|
A-------------10--12h14-----------------------|
E-------------------------------------10-10---|

Break 1 4x
G-12-13-14----------------------|
D---------------12p10-----10-12-|
A----------------------12-------|
E-------------------------------|

Verse
G--------12------------------------------------|---------------|
D-10-9-------------------12-12-12-12-----------|---------------|
A-------------10--12h14------------------------|--3-2----------|
E--------------------------------------10-10---|-------3-3-3-3-|


Break 2  4x
G----------------------------------------|
D--5p3-0---5p3-0--3----------------------|
A---------------------5----5p3-0--5p3-0--|
E----------------------------------------|

Verse 2 4x
G--------------------------|
D--------------------------|
A--------------------------|
E-1010101010101010-88888888|

Solo (improvise off of these riffs either one will sound fine.a combonation of the both) 
- 2:42
G--------12------------------------------------|---------------|
D-10-9-------------------12-12-12-12-----------|---------------|
A-------------10--12h14------------------------|--3-2----------|
E--------------------------------------10-10---|-------3-3-3-3-|

Verse 8x
G--------12-------------------------------------|
D-10-9-------------------12-12-12-12------------|
A-------------10--12h14-------------------------|
E---------------------------------------10-10---|

Break 2  4x
G----------------------------------------|
D--5p3-0---5p3-0--3----------------------|
A---------------------5----5p3-0--5p3-0--|
E----------------------------------------|

Break for little solo.

3:23- 3:55


Solo (improvise off of these riffs either one will sound fine.a combonation of the both) 
-4:43
G-------12------------------------------|---------------|
D-10-9----------------12-12-12-12-------|---------------|
A-----------10--12h14-------------------|--3-2----------|
E---------------------------------10-10-|-------3-3-3-3-|

Break 4x
G----------------------------------------|
D--5p3-0---5p3-0--3----------------------|
A---------------------5----5p3-0--5p3-0--|
E----------------------------------------|

G-----------|
D--5p3------|
A---------5-| 8x
E-----------|

End
G-------------------------------------------------------------|
D-------------------------------------------------------------|
A-00-11-22-33-44-55-66-77-88-99-1010-1111-1212-1313-1414-1515-|
E-------------------------------------------------------------|
comments
We did not receive enough feedback on this tab! Please rate:
print report bad tab
1 2 3 4 5
I want to post or [tab]
guest
You may want to rate the tab now too:
select rating
Please do not post tabs as comments. Select "correction" instead!