Oops, an error
Loading. Please wait.

Power To Love Bass Tab

version 2
version 2

Whole song

Interactive

715 views 3 this week
no commentswrite comment
1 2 3 4 5
please rate
add to favorites
launch autoscroll
font size
0
reset
guitar tuner
Autoscroll
slow
fast
+/-
esc
set tempo
stop
Help us to improve Ultimate-Guitar.com Take our survey!
×
Difficulty
intermediate
just download one fret from another version it so can be played in standard tuning


||------------------------|------------------------|------------------------|
||------------8-8---------|------------8-8---------|------------8-8---------|
||------------------------|------------------------|------------------------|
||--6---------------------|--6---------------------|--6---------------------|

------------------------|---------------------------|---------------------|
------------8-8---------|---------------------------|---------------------|
------------------------|-------------8-6-----------|------------8-6------|
--6---------------------|-----------------9--6------|----------------9--7-|

-------------------------|----------------------------------|
-----------------------6-|--8-8-6---6-6---6-8-8-6---------6-|
------------------6h-8---|--------8-----8------------6h-8---|
--L--------L-------------|----------------------------------|

----------------------------------|----------------------------------|
--8-8-6---6-6---6-8-8-6---------6-|--8-8-6---6-6---6-8-8-6---------6-|
--------8-----8------------6h-8---|--------8-----8------------6h-8---|
----------------------------------|----------------------------------|

----------------------------------|-------------------------------|
--8-8-6---6-6---6-8-8-6-----------|-------------------1-----------|
--------8-----8-----------------1-|--3--1---1-------------------1-|
---------------------------1h-3---|-------3----3-1-x-------1h-3---|

-------------------------------|--6-6-5-3-5-5-3---6-3-------------|
-------------------1---------3-|----------------6-----6---------3-|
--3--1---1--------------3h-5---|---------------------------3h-5---|
-------3----3-1-x--------------|----------------------------------|

--6-6-5-3-5-5-3---6-3----||------------------3-----------------|
----------------6-----6--||------------4---4---4---------6-----|
-------------------------||--4-6-6---6---6-------6-4-----------|
-------------------------||--------------------------7-4-------| x15

----------------------------|----------------------------------|
--6----8--6-----------------|-----6-----8--6-------------------|
8---8-------8-4--6-4--------|---8---8--------8-4--6-4----------|
---------------------6--6\--|-------------------------6--6-----|

--------------------------|-------------------------|-------------------------|
--------------------------|--8----------------------|-------------------------|
----------------------6-8-|-------6--8--------------|-------------------------|
--6----6--9---6--6--------|-------------6--6----4-6-|--6--6----4--6--6----4-6-|

-------------------------|------------------------------|
-------------------------|--8--6--------------------6---|
-------------------8--8--|-------8-4--6-4---------8---8-|
--6--6----4--6--6--------|----------------6--6--L-------|

------------------------------|--------------------------|
--8--6--------------------6---|--------------------------|
-------8-4--6-4---------8---8-|----------------------6-8-|
----------------6--6--L-------|--6----6--9---6--6--------|

-------------------------|-------------------------------|
--8----------------------|--8--6---------------------6---|
-------6--8--------------|-------8S-4--6-4---------8---8-|
-------------6--6----4-6-|-----------------6--6--L-------|

---------------------------------|------------------------------|
--8--6---------------------------|------------6-8--8--6-8-8-----|
-------8S-4--6-4---5---6---7---8-|--6--6--6-8---------------8-6-|
-----------------6---------------|------------------------------|

---------------------------------|------------------------|
---------------------------------|------------------------|
-------------------------6-6-8-8-|--6--6----4--6--6----6--|
--6--6--6-6-6-6-9-9-9-9----------|------------------------|

---------------------------------------|----------------------------------|
---------------------------------------|--8--6------------------------6---|
--6-6-6-7-7-7-8-8-8-9--9--9--10-10-10--|-------8-4--6-4-------------8---8-|
---------------------------------------|----------------6--6\-------------|

--------------------------|----------------------------------|
--8--6----------------6---|--8--6------------------------6---|
-------8-4--6-4---------8-|-------8-4--6-4-------------8---8-|
----------------6--6------|----------------6--6\-------------|

-------------------------|-------------------------|------------------------|
--8--6-------------------|-------------------------|------------------------|
-------8-4--6-4----------|-------------------------|------------------------|
----------------6--6-----|--6--6--4--6--6----4--6--|--6----4--6--6----4--6--|

-------------------------|--------------------------|
-------------------------|--------------------------|
-------------------------|------------------------1-|
--6--6--4--6--6----4--6--|--6----4--6--6------1-3---|

-------------------------------|-------------------------------|
-------------------1-----------|-------------------1---------3-|
--3--1---1-------------------1-|--3--1---1--------------3h-5---|
-------3----3-1-x-------1h-3---|-------3----3-1-x--------------|

--6-6-5-3-5-5-3---6-3-------------|--6-6-5-3-5-5-3---6-3-------|
----------------6-----6---------3-|----------------6-----6-----|
---------------------------3h-5---|----------------------------|
----------------------------------|----------------------------|

------------3------------------------|
----------4---4-----------6----------|
4-6-6---6-------6-5-4----------4-6-6-|
----------------------7-4------------| x45

---------------------------|----------------------------------|
--6-6----------------6-6-6-|--6-6-6-6-6-6-6-6-6-6-6-6-6-6-6-6-|
-----------6--6------------|----------------------------------|
---------------------------|----------------------------------|

----------------------------------|----------------------------------|
--4-6-6-6-6-6-6-6-4-4-6-6-6-6-6-6-|--4-6-6-6-6-6-6-6-4-6-6-6-6-6-6-6-|
----------------------------------|----------------------------------|
----------------------------------|----------------------------------|

----------------------------|-------------------------|
--4-6-6---------------------|-------------------------|
--------------------4-6-6-6-|-----------------4-6-6-6-|
----------------------------|-------------------------|

-------------------------|-------------------------|
-------------------------|-------------------------|
-----------------4-6-6-6-|-------------------4-6-6-|
-------------------------|-------------------------|

-----------------------------------|-----------------------------------|
--4---4-8-5---5---5---5-9--5-------|--6---6-10-6------------8----------|
----6-------7---7---7--------8-8-8-|----8--------8-7-6-----------6-8-8-|
-----------------------------------|-------------------9--6------------|

----------------------------------|--------------------------|
--8--6------------------------6---|--8--6----------------6---|
-------8-4--6-4-------------8---8-|-------8-4--6-4---------8-|
----------------6--6\-------------|----------------6--6------|

----------------------------------|--------------------------|
--8--6------------------------6---|--8--6----------------6---|
-------8-4--6-4-------------8---8-|-------8-4--6-4---------8-|
----------------6--6\-------------|----------------6--6------|

--------------------------||-------------------------|
--8--8--------------------||-------------------------|
-----------8--------------||-------------------------|
--------6-----6--6----4-6-||--6--6----4--6--6----4-6-|x15

---------------------------|
-----------------------6---|
---------------------8---8-|
--6--6---------------------|

--------------------------|----------------------------------|
--8--6----------------6---|--8--6------------------------6---|
-------8-4--6-4---------8-|-------8-4--6-4-------------8---8-|
----------------6--6------|----------------6--6\-------------|

--------------------------|------------------------------|
--8--6----------------6---|--8--6------------------------|
-------8-4--6-4---------8-|-------8-4--6-4---------------|
----------------6--6------|----------------6--6\---------|

---------------------------|---------------------------|-------||
-----------------------6---|--8--6---------------------|-------||
--8-8-8-8-8--8-8---------8-|-------8-4--6-4------------|-------||
-----------------6--6------|----------------6--6\------|-------||
Suggest correction
What's this?
You can suggest a correction to this tab. Community and Mods will review your correction and vote to approve or reject it.
comments
We did not receive enough feedback on this tab! Please rate:
print report bad tab
1 2 3 4 5
guest
You may want to rate the tab now too:
select rating
Please do not post tabs as comments. Select "correction" instead!