Oops, an error
Loading. Please wait.
We have an official Purple Haze tab made by UG professional guitarists. Check out the tab »
×
47,286 views 27 this week
39 commentsread comments
1 2 3 4 5
x 27
add to favorites
launch autoscroll
font size
0
reset
how to read this tab
guitar tuner
backing track
0:00
0:00
×
Best way to learn
"Purple Haze"
Autoscroll
slow
fast
+/-
esc
set tempo
stop
Author
Tuning
  follow
D# G# C# F# A# D#
Half-step down

 [Intro]
D#|-----------------------------|
A#|-----------------------------|
F#|-----8-----8-----------------|
C#|-----8-----8------8-----8\0--|
G#|------------------x----------|
D#|-6------6-----6---6--6-------|

D#|----------------------------------|
A#|----------8b----------------------|
F#|-------7--------------------------|
C#|--7/9--------7-----5--------------|
G#|---------------------5---/7-------|
D#|-----------------------0-----16\--|

D#|--------------------------------------------------|
A#|----------8b--------------------------------------|
F#|-------7------------------------------------------|
C#|--7/9--------7b~-------7\5-5----------------------|
G#|------------------------------5----/7-------------|
D#|-----------------------------(0)-0----------------|

D#|--------------------------------|
A#|--------------------------------|
F#|--------------------------------|
C#|-----5-7-7b-5~-----5------------|
G#|--/7------------------5--7------|
D#|-------------------------0--3~--|

D#|--------------------------------------------------|
A#|-0---------------------7--------------------------|
F#|-0-----------------------7-9----------------------|
C#|-5-5-7b-5h7-5h7p5---/9----------------------------|
G#|------------------7-------------------------------|
D#|------------------------------0-16\---------------|

D#|-----------------------------------------------------------------|
A#|---8--8--8--8--8-----8-8-8----------3----------7--7--7-----------|
F#|---7--7--7--7--7-----7-7-7----------x--4/6--6--6--6--6-----------|
C#|---6--6--6--6--6-----6-6-6----------5--5/7--7--7--7--7-----------|
G#|---7--7--7--7--7-----7-7-7---------------x--x--x--x--x-----------|
D#|-----0-------------0----------3--3-------5--5--5--5--5-----------|

D#|--------------------------------------------------------3--3-|
A#|------8--8--8--8--8------0-0---3--3--3------------------3--3-|
F#|------7--7--7--7--7--7/9-5-5---4--4--4--------6-7-8-----x--x-|
C#|------x--x--x--x--x------------5--5--5--7--7--x-x-x-----2--2-|
G#|-----(7)(7)(7)(7)(7)--------------------x--x--4-5-6----------|
D#|-0-0-------------------------3-3--3--3--5--5--------0--0-----|

D#|-0------------------------------------------------------------------------------------------------------|
A#|-0---------8b-------3--3--3-5p3p0h5p3p0h5p3p0h5p3p0h5p3p0h5p3p0h5p3p0h5p3p0h5p3p0h5p3p0h5p3p0h5p3p0-5b--|
F#|--------7-----4--4--4--4--4-----------------------------------------------------------------------------|
C#|----/9--------5--5--5--5--5-----------------------------------------------------------------------------|
G#|--------------x--x--------------------------------------------------------------------------------------|
D#|--------------3--3--------------------------------------------------------------------------------------|

 [Verse]
D#|-----3--3-------3-----------------------------------3-3-3--|
A#|-----3--3-------3-----------------------------------3-3-3--|
F#|-----x--x-------1-----------------------------------x-x-x--|
C#|-----2--2-------2-----------------------------------2-2-2--|
G#|--------------------------2-2-3-4/5---4-4-5-6-7------------|
D#|-0--------0--0-----0-0--3-----------5-----------0-0--------|

D#|------3-------------------------------------------|
A#|------3---------3-3-3/5-5-0-7-7-7-0---------------|
F#|----------------4-4-4/6-6---6-6-6-0---------------|
C#|----------------5-5-5/7-7---7-7-7-----------------|
G#|----------5-----5-5-5/x---------------------------|
D#|-0-0----0---3-3------/5---------------------------|

D#|---3-3-3-3------3-3-3----------------------3------|
A#|---3-3-3-3------3-3-3------3-3/5---5-7-0-0-3------|
F#|---x-x-x-x------x-x-x------4-4/6---6-6-0-0-x------|
C#|---2-2-2-2------2-2-2------5-5/7---7-7-0-0-2------|
G#|---------------------------x-x-----x--------------|
D#|-0----------0-0--------3-3-3-3---5-5--------------|

D#|----------------------------------------------------|
A#|--------------------8b----------8br-----------------|
F#|-9/11-9--7--------7----------7----------------------|
C#|-x-x--x--x----/9---------/9-------------------------|
G#|-7/9--7--5------------------------------------------|
D#|----------------------------------------------------|

 [Verse]
D#|--------------5p3p0-------|
A#|--5p3p0h5p3p0-------5p3p0-|
F#|--------------------------|
C#|--------------------------|
G#|--------------------------|
D#|--------------------------|

 "put a spell on me"
D#|----------------------------------------------------|
A#|--------------------8b----------8br-----------------|
F#|-9/11-9--7--------7----------7----------------------|
C#|-x-x--x--x----/9---------/9-------------------------|
G#|-7/9--7--5------------------------------------------|
D#|----------------------------------------------------|

D#|--------------------------------------------------------|
A#|----------12b----------12b-0-------15b----------15b-0---|
F#|-------9------0------9-----0----12----------12------0---|
C#|--/11-----------/11----------13--------/14--------------|
G#|--------------------------------------------------------|
D#|--------------------------------------------------------|

D#|----------------------------------------------------|
A#|-12-------12--12--12--12--12------------------------|
F#|-14b------14b-14b-14b-14b-14b-----------------------|
C#|----------------------------------------------------|
G#|----------------------------------------------------|
D#|----------------------------------------------------|

D#|----------------------------------------------------|
A#|-12-14p12----12h14p12-------------------------------|
F#|----------14----------14-12---14p12-----12h14--14b--|
C#|-------------------------------------14-------------|
G#|----------------------------------------------------|
D#|----------------------------------------------------|

D#|----------------------------------------------------|
A#|----------------------------------------------------|
F#|-(0)-----12h14p12-----12~--0--12p11-----------------|
C#|-(0)-14------------14----------------14p12----------|
G#|----------------------------------------------------|
D#|----------------------------------------------------|

D#|----------------------------------------------------|
A#|-0--------------------------------------------------|
F#|-0--------------------------------------------------|
C#|-0-12-14-12\11-12------12h13h14h16p12-------16p12---|
G#|--------------------14------------------------------|       
D#|----------------------------------------------------|       

D#|----------------------------------------14-12-14----|
A#|----------------------------------------------------|
F#|----------------------------------11-12-------------|
C#|-16-12-16-12-16-12------16p12h14--------------------|
G#|----------------------------------------------------|
D#|----------------------------------------------------|

D#|--------------------12-----12--17b------17-15-17b--r|
A#|-----------------12-12-12--12-----------------------|
F#|-14-12----12-14b-------14b--------------------------|
C#|-------14-------------------------------------------|
G#|----------------------------------------------------|
D#|----------------------------------------------------|

D#|-15h17p15----15-17b--r-15b----------15b-15--15h17p15|
A#|----------17----------------------------------------|
F#|----------------------------------------------------|
C#|----------------------------------------------------|
G#|----------------------------------------------------|
D#|----------------------------------------------------|

D#|-0--15----0-17-17b-17-15-17b-17~-15h17----15--0-17b18b19--|
A#|-17----17-------------------------------------0-----------|
F#|----------------------------------------------------------|
C#|----------------------------------------------------------|
G#|----------------------------------------------------------|
D#|----------------------------------------------------------|

D#|-19b-19b-17-15-15-17-17b--15---17------15-----------|
A#|------------------------------------17----17b---r---|
F#|----------------------------------------------------|
C#|----------------------------------------------------|
G#|----------------------------------------------------|
D#|----------------------------------------------------|

D#|-0--------------------------------------------------|
A#|-0------------8b------------------------------------|
F#|-0---------7----------------------------------------|
C#|------/9----------7br---7\5-------------------------|
G#|-----------------------------5-----7----------------|
D#|--------------------------------0------16\----------|

D#|----------------------------------------------------|
A#|--------8b------------------------------------------|
F#|-----7----------------------------------------------|
C#|-/9--------7br-------5---------------5--------------|
G#|------------------------5-----7---------5--7--------|
D#|---------------------------0------------------------|

D#|----------------------------------------------------|
A#|----------------------------------------------------|
F#|------------------------7-x--------------8b---------|
C#|-5b--7-5-7b-r--brbrbrb------5----------7------------|
G#|------------------------------7----/9--------7b-----|
D#|----------------------------------------------------|

D#|-------------------------------------|
A#|-------------------------------------|
F#|-7-----------------------------------|
C#|---7\6-5b-7-5b-----------------------|
G#|---------------7-----------5---------|
D#|-----------------7-0-0-/7------------|

D#|------3-3-------3---------------------7-------------|
A#|------3-3-------3------3-3-3-3-3------5-------------|
F#|------1-1-------1------4-4-4-4-4------6-------------|
C#|------2-2-------2------5-5-5-5-5------7-------------|
G#|-----------------------x-x-x-x-x--------------------|
D#|-0-0------0-0-0---0--3-3-3-3-3-3-5-5-----17\--------|

D#|------3-3------3------------------------------------3-----------3-----|
A#|------3-3------3--0----3----3-3-5-5-5-5-5-0---------3-----------3---0-|
F#|------x-x------x----0--4----4-4-6-6-6-6-6-0---------x-----------1---0-|
C#|------2-2------2-------5----5-5-7-7-7-7-7-0---------2---2-------2-----|
G#|-----------------------x----x-x-x-x-x-x-x-----------------------------|
D#|-0-0-------0-0---------3----3-3-5-5-5-5-5----0-0-0----0---0-0-0---0---|

D#|-----------------0------------|
A#|-3-3-3-5-5-5-5-5-7---3-3------|
F#|-4-4-4-6-6-6-6-6-6-0---x------|
C#|-5-5-5-7-7-7-7-7-7-----2------|
G#|-x-x-x-x-x-x-x-x--------------|
D#|-3-3-3-3-5-5-5-5--------------|

D#|----------------------------------------------------|
A#|-------------------------0-------------0------------|
F#|-9/11-9-7-7--------12b-x-----------12b--------------|
C#|-x-x--x-x-x-----12-----x-------12-------------------|
G#|-7/9--7-5-5-/11------------/11----------------------|
D#|----------------------------------------------------|

D#|-----------------------------------------------------------------|
A#|--------12b-0-0---------12b-(0)----------15b-----------15b--0----|
F#|-----9---------------9----------12-12-12------12-12-12------0----|
C#|-11--------------11----------------------------------------------|
G#|-----------------------------------------------------------------|
D#|-----------------------------------------------------------------|

D#|---------------12-12---------------|
A#|-12---12-12-12-12-12-12---12-------|
F#|-14b--14-14-14-14-14-14---14b------|
C#|-----------------------------------|
G#|-----------------------------------|
D#|-----------------------------------|

D#|-----------12--12--12--12-12-12-12-0---------12-----|
A#|-(0)-12h15-15b-15b-15b-15-15-15-15-15-0-x/14-15b----|
F#|-(0)-----------15b----------------------x/----------|
C#|-(0)------------------------------------x/----------|
G#|----------------------------------------------------|
D#|----------------------------------------------------|

D#|-0----0--0--0--0--0--0----0----0----0---0--0--0----------|
A#|-15b-15b-15b15-15-15-15---15b--15b--15--15-15-15---------|
F#|---------------------------------------------------------|
C#|---------------------------------------------------------|
G#|---------------------------------------------------------|
D#|---------------------------------------------------------|

D#|-0--0-------0---0--0--0--0--0--0--0--0--0--0--0--0----|
A#|-15-15-15b--15b-15-15-15-15-15-15-15-15-15-15-15-15---|
F#|------------------------------------------------------|
C#|------------------------------------------------------|
G#|------------------------------------------------------|
D#|------------------------------------------------------|

D#|--------12--12-12-12-12-12-12---12--12--12----------|
A#|-15-15b-15b-15-15-15-15-15-15---15b-15b-15br--------|
F#|-15-15b---------------------------------------------|
C#|----------------------------------------------------|
G#|----------------------------------------------------|
D#|----------------------------------------------------|

D#|-0--0--0--0--0----0--0--0--0--0---0--0---0--0--0--0---0--0-0---0---0-----0-----|
A#|-12-12-12-12-15br-15-15-15-15-15b-15-15b-15-15-15-15--15-0-15b-15b-15-15-15brb-|
F#|-------------------------------------------------------------------------------|
C#|-------------------------------------------------------------------------------|
G#|-------------------------------------------------------------------------------|
D#|-------------------------------------------------------------------------------|

D#|-0---------0--0--0--0--0----------------------------|
A#|-15b-15----15-15-15-15-0----15b--------------8b-----|
F#|----------------------------------0-------7---------|
C#|--------------------------------------/9---------7--|
G#|----------------------------------------------------|
D#|----------------------------------------------------|

D#|----------------------------------------------------|
A#|-------------------------------------------8b-------|
F#|---------------------------------------7------------|
C#|----------5-----------------------/9-----------7----|
G#|-------------5-----7--7/12--------------------------|
D#|-x--17\0--------0----------17\0---------------------|

D#|---------------------------------------------------------|
A#|---------------------------------------------------------|
F#|---------------------------------------------------------|
C#|-7br-5-7-7b-7-5b--------------------5-7b-5b--rb----------|
G#|-----------------7-5-7----------5-7-------------7-5------|
D#|------------------------0-0-5-7-----------------------3--|
                                                      
D#|----------------------------12------12------12h15p12-----12h15p12-------|
A#|--------8b-------------15b------15b-----15b------------15---------------|
F#|-----7---------0-------------------------------------15-----------------|
C#|-/9--------7p0---0-0----------------------------------------------------|
G#|------------------------------------------------------------------------|
D#|------------------------------------------------------------------------|

D#|-----15-12-----15-12--12h15p12-----12h15p12----12h15p12---12-15-12---|
A#|---15--------15-----15-----------15---------15----------15-----------|
F#|-15--------15------------------15------------------------------------|
C#|---------------------------------------------------------------------|
G#|---------------------------------------------------------------------|
D#|---------------------------------------------------------------------|

D#|-----12h15p12----12h15p12-------12h15p12---12h15p12---12h15p12--12h15p12---12---------|
A#|---15--------15--------------15----------15---------15--------15--------15b--15-12----|
F#|-15-----------------------15----------------------------------------------------------|
C#|--------------------------------------------------------------------------------------|
G#|--------------------------------------------------------------------------------------|
D#|--------------------------------------------------------------------------------------|

D#|---------------------------------------------------------------------------------|
A#|-----12--------------------12----------------------------------------------------|
F#|-14b----14b-r-p12----12-14---14b-14p12----12-------------------------------------|
C#|------------------14-------------------14----14p12----12h14p12-------------------|
G#|---------------------------------------------------14----------14p12-------------|
D#|---------------------------------------------------------------------15-12-------|

D#|----------------------------------------------------------------------------------------|
A#|-15--------12h15p12--------------------12h15p12-----------------------------------------|
F#|-14b---14b----------14b-r-p12----12-14----------14b-r-p12----14p12----12----------------|
C#|------------------------------14--------------------------14-------14-----14p12p0-------|
G#|----------------------------------------------------------------------------------------|
D#|----------------------------------------------------------------------------------------|

D#|------------------------------------------------------------------------|
A#|------------------------------------------------------------------------|
F#|-14b---------rbr-p12--------12b-----------------------------------------|
C#|----------------------14p12-----14p12----12h14-12-----------------------|
G#|--------------------------------------14----------14-14-----------------|
D#|--------------------------------------------------------15p12-15--------|

D#|-15b17-15br-12h15p12-----12---12p0---0----------0-----------------------|
A#|---------------------15b---15------0---12h15p12-0-15p12--15p12----------|
F#|-------------------------------------------------------14-----14br-12---|
C#|---------------------------------------------------------------------14-|
G#|------------------------------------------------------------------------|
D#|------------------------------------------------------------------------|

D#|-----------------------------------------------------------------------------------|
A#|-----------------------------------------------------------------------------------|
F#|-14-12-----------------------------------------------------------------------------|
C#|-------14p12---------------14p12---------------------------------------------------|
G#|-------------13p12---------------14p12------------------10h12p10----------10-12----|
D#|-------------------15b-p12-------------15-12\10\8-10-12-----------12p10h12---------|

D#|------------------------------------------------------------------------|
A#|---------------------0-------------8------------------------------------|
F#|---------------------x---------7---------------------------x---x--------|
C#|---------------------2----/9----------7br------------------x------------|
G#|---------------------2-------------------------------------x------------|
D#|-0b---b---b--b-------0-------------------------------------x------------|


************************************

| \    Slide down
| x    Dead note
| b    Bend
| /    Slide up
| (n)  Ghost note
| ~    Vibrato
| h    Hammer-on
| p    Pull-off
| br   Bend release

************************************
Suggest correction
comments
print report bad tab
39 comments total. Showing first comments.
+1 reply
Strat_Monkey 172 Feb 25, 2005 07:00 PM

I thought I'd comment since no-one else has. Awesome tab! 5 Stars.

0 reply
guitar_freak333 40 Mar 02, 2005 07:00 PM

Ok, how do you read this?! It is very hard to read.

-2 reply
guitar_freak333 40 Mar 02, 2005 07:00 PM

And He does not say kiss this guy, trust me I love this song to death.

guest
You may want to rate the tab now too:
select rating
Wanna post a correction for this tab? Suggest correction