Oops, an error
Loading. Please wait.

Purple Haze Tab

version 1
2,880,145 views 4,062 this week
221 commentsread comments
1 2 3 4 5
excellent!
x 776
add to favorites
launch autoscroll
font size
0
reset
how to read this tab
guitar tuner
Tab Pro tools
  • play this tab
  • loop segment
  • change instrument
  • show fretboard
  • metronome
×
Best way to learn
"Purple Haze"
Autoscroll
slow
fast
+/-
esc
set tempo
stop
  [Intro] 
                                                                 
e|-------------------------|----------------------------|-------------------------|------------------------|
B|-------------------------|----------------------------|----------8b~------------|------------------------|
G|-------------------------|----------------------------|-------7-----------------|------------------------|
D|-----------8--------8----|----------------------------|---/9--------7~-------(7)|--5---------------------|
A|-------------------------|----------------------------|-------------------------|-----5-----5/7~---------|
E|------6--------6---------|----------------------------|-------------------------|--------0---------------|
                                                             
e|-------------------------|---------------------------|-------------------------|-------------------------|
B|--------------8b~--------|---------------------------|-------------------------|-------------------------|
G|----------7--------------|---------------------------|-------------------------|-------------------------|
D|----/9------------7------|-(7)\/5--------------------|--------5---7---7b---5~--|-------5-----------------|
A|-------------------------|----------5-------5/7~-----|--5/7--------------------|-----------0-----3~----0-|
E|-------------------------|--------------0------------|-------------------------|--------------0----------| 
                                          
e|-------------------------|----------------------------|-------------------------|------------------------|
B|-------------------------|----------------------------|-------------------------|------------------------|
G|-------------------------|------------------7---7--9~-|-------0-----------------|------------------------|
D|--------5--7b----5h7-(7)~|-----5-------/9-------------|-------------------------|------------------------|
A|---5/7-------------------|---------5------------------|-------------------------|------------------------|
E|-------------------------|----------------------------|-------------15\---------|------------------------|

     E7#9                                                G                     A
e|--------------------------------------------------|---------------------------------------------------|
B|---------8---8---------8---8---------8------------|-3------3----3---------5-----5---5---7p5---5-------|
G|---------7---7---------7---7---------7------------|-4------4----4---------6-----6---6---6-----6-------|
D|---------6---6---------6---6---------6------------|-5------5----5---------7-----7---7---7-----7-------|
A|---------7---7---------7---7---------7------------|---------------------------------------------------|
E|--0-----------------------------------------------|-3------3----3----3----5-----5-------5-----5-------| 

     E7#9                                                G                     A
e|--------------------------------------------------|---------------------------------------------------|
B|---------8---8---------8---8----8----8------------|-------------3---------------5---5---7p5---5-------|
G|---------7---7---------7---7----7----7------------|-------------4---------------6---6---6-----6-------|
D|---------6---6---------6---6----6----6------------|-------------5---------------7---7---7-----7-------|
A|---------7---7---------7---7----7----7---7\-------|---------------------------------------------------|
E|--0-----------------------------------------------|-3------3----3----3----5-----5-------5-----5-------|



[Verse]


     E7#9                                G                 A                         E7#9
e|-------------------------------|----------3--------------------------------|--------------------------|
B|----8---8-----8---8---8--------|--3-------3---------5----5---5---7p5---5---|----8--8----8-8--8---8----|
G|----7---7-----7---7---7--------|--4-------4---------6----6---6---6-----6---|----7--7----7-7--7---7----|
D|----6---6-----6---6---6--------|--5-------5---------7----7---7---7-----7---|----6--6----6-6--6---6----|
A|----7---7-----7---7---7---7\---|-------------------------------------------|----7--7----7-7--7---7----|
E|--0----------------------------|--3---3--------3----5----5-------5-----5---|-0------------------------|
          Pur-ple Haze_            all  in   my   brain,_                        lately things  just don't

      G                  A                           E7#9
e|----------------------------------------------|-----------------------------------------|
B|-----------3---------5-----5---5---7p5---5----|----------8------8------8----8------8----|
G|-----------4---------6-----6---6---6-----6----|----------7------7------7----7------7----|
D|-----------5---------7-----7---7---7-----7----|----------6------6------6----6------6----|
A|----------------------------------------------|----------7------7------7----7------7----|
E|--3----3---3----3----5-----5-------5-----5----|---0-------------------------------------|
     seem  the same.                                      Act - in'    funny,         but  I

      G                     A                              E5
e|----------------------------------------------------|---------------------|--------------------------|
B|--3------3----3---------5-----5---5---7p5---5-------|---------------------|--------------------------|
G|--4------4----4---------6-----6---6---6-----6-------|---------------------|--------------9/11--9---7-|
D|--5------5----5---------7-----7---7---7-----7-------|---------------------|--------------------------|
A|----------------------------------------------------|---------------------|--------------7/9---7---5-|
E|--3------3----3----3----5-----5-------5-----5-------|--0------------------|--------------------------|
      don't know why,                                       s'cuse me;      while I kiss  the sky.

                                                   E7#9                           G                  A
e|------------------------------------|--------------------------------|---------------------------------|
B|-------------8b----------------8b~--|------8--------8-----8-8-8-8----|------------3--------5---5-5-5---|
G|--------7----------------7----------|------7--------7-----7-7-7-7----|------------4--------6---6-6-6-\-|
D|---/9-------------/9----------------|------6--------6-----6-6-6-6----|------------5--------7---7-7-7-\-|
A|------------------------------------|------7--------7-----7-7-7-7----|---------------------------------|
E|------------------------------------|--0---------------------------0-|--3----3----3----3---5---5---5---|
                                                      Pur - ple Haze               all   a   - round,

     E7#9                                 G                  A                            E7#9
e|----------------------------|------------------------------------------|-------------------------------|
B|-----8----------------------|----------3-------------5---5---7---5---5-|----8-----8--------------------|
G|-----7----------------------|----------4-------------6---6---6---6---6-|----7-----7--------------------|
D|-----6----------------------|----------5-------------7---7---7---7---7-|----6-----6--------5-----------|
A|-----7-------5h7-5----------|------------------------------------------|----7-----7-----5----7-5-------|
E|-0------5h7---------7--6--5-|-3----3---3----3----5---5-------5---------|-0------------7----------7-6-5-|
      don't know  if   I'm    com - in'    up   or  down.                       Am  I  hap - py      or

      G                     A                              E5
e|----------------------------------------------------|-------------------------|----------------------|
B|--------------3---------5-----5---5---7p5---5-------|-------------------------|----------------------|
G|--------------4---------6-----6---6---6-----6-------|-------------------------|----------9/11--9---7-|
D|--------------5---------7-----7---7---7-----7-------|-------------------------|----------------------|
A|----------------------------------------------------|-------------------------|----------7/9---7---5-|
E|--3------3----3----3----5-----5-------5-----5-------|--0----------------------|----------------------|
    in  mis - er - y?                        What-ev - er  it  is    that  girl  put a spell on me 

                                         A                                B                   
e|----------------------------------|------------------------------|-------------15~-------------15~---12-|
B|----------------8b-----------8\(0)|-----------12b------------12b-|--------------------------------------|
G|-----------7-------------7--------|-------9--------------9-------|--------12----------------12----------|
D|-----/9-------------/9------------|-/11------------/11-----------|---/14---------------/14--------------|
A|----------------------------------|------------------------------|--------------------------------------|
E|----------------------------------|------------------------------|--------------------------------------|
                                                Help me!                           Help me!       
                                                                   
       D                                               
e|---------------------------------------------------|
B|------------15~---------15~-15-----15-----15-------|
G|---14b~--------14b~---------14b----14b----14b------|
D|---------------------------------------------------|
A|---------------------------------------------------|
E|---------------------------------------------------|
          Oh,       no,            no!



 [Guitar solo]

  E7#9
e|-----------------------------------------------|
B|-----------------------------------------------|
G|--16--16h1818h18p16--16\14----14h16p14---14\13-|
D|-----------------------------------------------|
A|-----------------------------------------------|
E|-----------------------------------------------|
          
       F#5                 D5                             E7#9 
e|------------------------------------------------------|--------------------------------------------|
B|------------------------X-----------------------------|--------------------------------------------|
G|---13/14--------14b-----X----------12---14--12--------|----12~----11/12\11--11---------------------|
D|-------------------------------14---------------14----|-----------------------------14-----12------|
A|------------------------------------------------------|--------------------------------------------|
E|------------------------------------------------------|--------------------------------------------|

    F#5                        D5                        E7#9                                        
e|---------------------------------------------------|--------------------------------------------------|
B|---------------------------------------------------|--------------------------------------------------|
G|---------------------------------------------------|--------------------------------------------------|
D|-----12--14--12---11--12-----------------14---16---|---(16)----14h16p14\12--12/14--14----14/16---12~--|
A|---------------------------------14/16-------------|--------------------------------------------------|
E|---------------------------------------------------|--------------------------------------------------|

   F#5                          D5                     E7#9
e|--------------------------------------------------|----------------14-------12h14p12------12-----------|
B|-----------------------------------17\------------|----------------------------------15-------14h15p14-|
G|--------------------------------------------------|--11---12-------------------------------------------|
D|-16--12--16--12--16-----12-------------12---14----|----------------------------------------------------|
A|--------------------------------------------------|----------------------------------------------------|
E|--------------------------------------------------|----------------------------------------------------|

      F#5                                         E5                             
e|--------------------------------------------|-------------------------------|-------------------------|
B|-----14---12b---12h14h12--------15----------|------------8b-----------------|-------------------------|
G|-------------------------14b---------14b----|--------7----------------------|-------------------------|
D|--------------------------------------------|--/9------------7~---------(7)\|/5-----------------------|
A|--------------------------------------------|-------------------------------|------5-------5/7~-------|
E|--------------------------------------------|-------------------------------|----------0--------------|
                                                               Oh,                              ah!
           
e|-------------------------|-----------------------------------|----------------------------------------|
B|--------------8b~--------|-----------------------------------|----------------------------------------|
G|----------7~-------------|-----------------------------------|----------------------------------------|
D|----/9------------7~-----|-(7)\/5~---------------------------|-----5h7-7b~-7b~---------------5~-------|
A|-------------------------|----------5-------5/7~-------------|-/7~------------------------------7~----|
E|-------------------------|--------------0------------------0-|----------------------------------------|
                 Oo,                          ah!                               Oo,                       
                                         
e|----------------------------------|--------------------------------|--------------------------------|
B|----------------------------------|-----------8b-------------------|--------------------------------|
G|-------------------------------(0)|------7-------------------------|------------------------------X-|
D|-5h7--7-7b---7p5------------------|-/9------------7~-----------(7)\|/5----------------------------X-|
A|----------------------------------|--------------------------------|------5--------5/7~-----------X-|
E|------------------3~--------------|--------------------------------|----------0-----------------0---|
                  ah!                              Oo,                               ah!        Yeah!



[Verse]

   E7#9                                G               A                         E7#9
e|---------------------------------|----------------------------------------|-------------------------|
B|------8---8-----8---8---8----X\--|-----3--3--3---3/5----5---5---7---5-----|----8--8----8-8--8---8---|
G|------7---7-----7---7---7----X\--|-----4--4--4---4/6----6-------6-------6-|----7--7----7-7--7---7---|
D|------6---6-----6---6---6--------|-----5--5--5---5/7----7-----------------|----6--6----6-6--6---6---|
A|------7---7-----7---7---7--------|----------------------------------------|----7--7----7-7--7---7---|
E|-0-------------------------------|-3---3--3--3---3/5----5-----------------|-0---------------------0-|
       Pur-ple Haze             all  in   my   eyes,            uh,               don't know   if it's 

    G                A                        E7#9
e|-------------------------------------------|-----------------------------------------------|
B|------3----3----3/5-----5---7---7p5-----0--|----------8------8---8----8---8----------------|
G|------4----4----4/6-----6---6---6-----6----|----------7------7---7----7---7----------------|
D|------5----5----5/7------------------------|----------6------6---6----6---6------6---------|
A|-------------------------------------------|----------7------7---7----7---7-----------7\---|
E|--3---3----3----3/5------------------------|---0-------------------------------------------|
    day   or night.                                  You   got   me   blow  -  in',  
 
    G                     A                          E5  
e|------------------------------------------------|-----------------------------------------------|
B|--3---3----3------------5------8\7----------5---|-----------------------------------------------|
G|--4---4----4------------6------6----------------|-----------------------------------------------|
D|--5---5----5------------7------7----------------|-----------------------------------------------|
A|------------------------------------------------|-----------------------------------------------|
E|--3---3----3------------5-----------------------|---0-------------------------------------------|
    blow-in' my  mind,                  is it             to  -  mor  -  row,   or  just   the

e|--------------------------------------------------|-----------------------------------------------|
B|--------------------------------------------------|------------8b-------------------8b-------(8)\-|
G|------------------------9/11----9------7----------|-------7------------------7--------------------|
D|--------------------------------------------------|--/9----------------/9-------------------------|
A|------------------------7/9-----7------5----------|-----------------------------------------------|
E|--------------------------------------------------|-----------------------------------------------|
    end    of   time?



[Outro]
    
Gtr.I                                   
     A(sus2)                             B                                  D                         D# 
e|-------------------------------|----------------------------------|-----------------------------------|
B|-------------------------------|----------------------------------|---------12--14-15--14 12h14p12----|
G|-------------------------12~---|---(12)-----------------9----12~--|---(12)-------------------------14-|
D|--------------------12---------|-----------------/11--------------|-----------------------------------|
A|-------------/14---------------|----------------------------------|-----------------------------------|
E|-------------------------------|----------------------------------|-----------------------------------|

Gtr.II
e|---------0----0---0----------|-----------0----0------------0----|------------------------------------|
B|---------0----0---0----------|-----------0----0---0---0----0----|------------------7---7-----8----8--|
G|-2-------2----2---2----2/4---|-----------4----4---4---4----4----|-7------7----7----7---7-----8----8--|
D|-2------------2---2----2-----|----------------------------------|-7------7----7----7---7-----8----8--|
A|-0---------------------0/2---|-----------2----2---2---2----2----|-5------5----5----5---5-----6----6--|
E|-0---------------------------|----0---------------0---0---------|-0------0----0----------------------|


        Oo,                              help  me,                            ahh,              yeah,
Gtr.I 
  E7#9                          F#5            D5                 E7#9                  
e|----------------------------|--------------------------------|-----------------------------------------|
B|-------15b~---15~15~15~15~--|15~--15~15~15~15~15~15~15~-15b--|-15~-15~-15~-15~-15~--15~--15~--15~--15~-|
G|-12~------------------------|--------------------------------|-----------------------------------------|
D|----------------------------|--------------------------------|-----------------------------------------|
A|----------------------------|--------------------------------|-----------------------------------------|
E|----------------------------|--------------------------------|-----------------------------------------|

 Gtr.II                                                                     N
e|----------------------------------|----------------------------------|---------------------------------|
B|-------------8------8-------------|----------------------------------|---------------------------------|
G|-------------7------7-------------|----0-------0----7---7----6---6---|---------------------------------|
D|-------------6------6---9--9--9h11|-------0----0---------------------|----2-----------------0----------|
A|-------------7------7---7--7------|-----------------5---5----4---4---|---------------------------------|
E|-----0------------------0--0------|----------------------------------|---------------------------------|
         

                Pur-ple  Haze,   Yeah.                     Oh,     no,        no,                   oh,


Gtr.I  
  F#5             D5                 E7#9                              F#5                   D5
e|---------------------------------|--------------------------------|--------------------------------|
B|-15---15--15-15-15-15--15--15-15-|--15---15-15-15-15-15-15-15--15-|-15-15-15-15-15--15--15--15--15-|
G|---------------------------------|--------------------------------|--------------------------------|
D|---------------------------------|--------------------------------|--------------------------------|
A|---------------------------------|--------------------------------|--------------------------------|
E|---------------------------------|--------------------------------|--------------------------------|

Gtr.II                                                                                   
       N                                   N                                N
e|----------------------------------|----------------------------------|-------------------------------|
B|----------------------------------|----------------------------------|-------------------------------|
G|----------------------------------|----------------------------------|-------------------------------|
D|-----2---------------0------------|------2------------------0--------|----2---------------------0----|
A|----------------------------------|----------------------------------|-------------------------------|
E|----------------------------------|----------------------------------|-------------------------------|
 

            help me.             tell me  ba - by, tell  me!              I can't go on like this...    
                                                     Pur-ple Haze...


    E7#9                                                  F#5                   D5                        
e|-----------------------------------------------------|-------------------------------------------------|
B|----15~---15~--15~15~15~-----15b-----15------15------|---15b----15-----15---15--15--15--15b-15----15b--|
G|-----------------------------------------------------|-------------------------------------------------|
D|-----------------------------------------------------|-------------------------------------------------|
A|-----------------------------------------------------|-------------------------------------------------|
E|-----------------------------------------------------|-------------------------------------------------|
    you're  mak-in'  me         blow   my   mind...                                     ma-ma...
                             Pur  -  ple    Haze...


  E7#9                                                  F#5                        D5                  
e|--------------------------------------------------|-----------------------------------------------------|
B|-15b---15~--15~---15~---15~---15~---15~---15~--15~|-15~--15~--15~--15~--15~--15~--15~--15~--15~--15~-15~|
G|--------------------------------------------------|-----------------------------------------------------|
D|--------------------------------------------------|-----------------------------------------------------|
A|--------------------------------------------------|-----------------------------------------------------|
E|--------------------------------------------------|-----------------------------------------------------|
    no,         no....                    no...                                             no,
                   Pur  -  ple   Haze...


  E7#9                                                  F#5                        D5                      
e|--------------------------------------------------|-----------------------------------------------------|
B|-15---------------15b---15~---15~---15~---15~--15~|-15~--15~--15~--15~--15~--15~--15~--15~--15~--15~-15~|
G|--------------------------------------------------|-----------------------------------------------------|
D|--------------------------------------------------|-----------------------------------------------------|
A|--------------------------------------------------|-----------------------------------------------------|
E|--------------------------------------------------|-----------------------------------------------------|
                it's     pain              ful, ba - by...
                     Pur - ple  Haze...

  E7#9                                                  F#5                        D5       
e|--------------------------------------------------|-----------------------------------------------------|
B|-15~--15~--15~----15~---15~---15~---15~---15~--15~|-15~--15~--15~--15~--15~--15~--15~--15~--15~--15~-15~|
G|--------------------------------------------------|-----------------------------------------------------|
D|--------------------------------------------------|-----------------------------------------------------|
A|--------------------------------------------------|-----------------------------------------------------|
E|--------------------------------------------------|-----------------------------------------------------|
          Pur  -  ple  Haze...                                                                     fade out




***********************************
| /   Slide up
| \   Slide down
| h   Hammer-on
| p   Pull-off
| ~   Vibrato
| x   Dead note
| b   Bend
| N   Tremolo 
***********************************
comments
print report bad tab
221 comments total. Showing first comments.
+6 reply
grungeragdoll wrote on March 22 2002, 12:00 am

kick ass dude, word to this tab

+4 reply
butt pirate wrote on March 29 2002, 12:00 am

nice job.

+4 reply
skacroties wrote on April 11 2002, 12:00 am

rock on

I want to post or [tab]
guest
You may want to rate the tab now too:
select rating
Please do not post tabs as comments. Select "correction" instead!