Oops, an error
Loading. Please wait.

Purple Haze Bass Tab

version 2
version 2
10,548 views 3 this week
4 commentsread comments
1 2 3 4 5
please rate
add to favorites
launch autoscroll
font size
0
reset
guitar tuner
Autoscroll
slow
fast
+/-
esc
set tempo
stop
Help us to improve Ultimate-Guitar.com Take our survey!
×
Author
Difficulty
intermediate
-------------------------------------------------------------------------------
			    Purple Haze - The Jimi Hendrix Experience
-------------------------------------------------------------------------------

Tabbed By : Lyricfreak91
e-mail: Rocknroll1976@sbcglobal.net

Tuning:Standard

G|--------------------------------------------------------------------------|
D|-----2-------2-------2-------2------2------2------2------2------2------2--|
A|--------------------------------------------------------------------------|
E|-0-------0-------0-------0-----0-------0-------0------0------0-----0------|            
                                                             x2

G|--------------------------------------------------------------------------|
D|--------------------------------------------------------------------------|
A|---------7-----------7----------456---------7-------7---------456---------|
E|--00-----------00---------333-5--------00------00-------333-5-------------|

G|---------------------------------------------------------------------------|
D|---------------------------------------------------------------------------|
A|-------7------7---------456------7------7--------456-----7-----7------456--|
E|--00------00------333-5------00-----00-----333-5-----00----00---333-5----0-|

   S'cuse me while i kiss the sky

G|--------------------------------------------------------------------------|
D|--------------5-------5---------------------------------------------------|
A|--975-----5-------5-------------------------------------------------------|
E|-------7-------7----------------------------------------------------------|

G|--------------------------------------------------------------------------|
D|--------------------------------------------------------------------------|
A|-----7-------7--------456--------7------7--------456-----7-----7----456---|
E|--00-----00-----333-5-------00-----00----333-5------00----00---333-5----0-|

G|--------------------------------------------------------------------------|
D|-------------5------5-----------------------------------------------------|
A|--975-----5------5--------------------------------------------------------|
E|-------7-------7----------------------------------------------------------|
outro
G|------------------------------------------------------------------|
D|------------------------------------------------------------------| x3
A|-7777--99---55----------------------------------------------------|
E|------------------------------------------------------------------|
Guitar solo on you own


G|-------------------------------------------------------------------|
D|-----7-------7-----------------------------------------------------| x3
A|-------------------------456---------------------------------------|
E|-00------00------333--5--------------------------------------------|

G|--------------------------------------------------------------------------|
D|-------------5------5-----------------------------------------------------|
A|--975-----5------5--------------------------------------------------------|
E|-------7-------7----------------------------------------------------------|
play outro and fade out
Suggest correction
Give kudos to tab author, rate the tab!
1 2 3 4 5
comments
print report bad tab
4 comments total. Showing first comments.
0 reply
Jocke1995 60 wrote on November 9 2008, 07:08 am

sounds like crap

0 reply
Yuusukedesu 10 wrote on March 28 2009, 05:49 pm

This is terrible first of all the intro isn't
G|--------------------------------------------------------------------------|
D|-----2-------2-------2-------2------2------2------2------2------2------2--|
A|--------------------------------------------------------------------------|
E|-0-------0-------0-------0-----0-------0-------0------0------0-----0------|

it's
G|-----9------9-------9-------9------9------9------9------9------9------9---|
D|--------------------------------------------------------------------------|
A|-7------7-------7-------7------7-------7-------7------7------7-----7-------|
E|-------------------------------------------------------------------------|

0 reply
Yuusukedesu 10 wrote on March 28 2009, 05:50 pm

This is terrible first of all the intro isn't
G|--------------------------------------------------------------------------|
D|-----2-------2-------2-------2------2------2------2------2------2------2--|
A|--------------------------------------------------------------------------|
E|-0-------0-------0-------0-----0-------0-------0------0------0-----0------|

it's
G|-----9------9-------9-------9------9------9------9------9------9------9---|
D|--------------------------------------------------------------------------|
A|-7------7-------7-------7------7-------7-------7------7------7-----7-------|
E|-------------------------------------------------------------------------|

guest
You may want to rate the tab now too:
select rating
Wanna post a correction for this tab? Suggest correction