Oops, an error
Loading. Please wait.

Purple Haze Tab

version 2
133,942 views 171 this week
33 commentsread comments
1 2 3 4 5
x 53
add to favorites
launch autoscroll
font size
0
reset
how to read this tab
guitar tuner
Autoscroll
slow
fast
+/-
esc
set tempo
stop
Help us to improve Ultimate-Guitar.com Take our survey!
×
Song: Purple Haze
Band: The Jimi Hendrix Experience (a.k.a. Jimi Hendrix)
Tabbed by: Master Hue
Tuning (low)E A D G B e(high)
Date tabbed: 2/10/02

Purple Haze
Jimi Hendrix


[Intro]

e|----------------------------------------------------------|
B|------------------------8b--------------------------------|
G|----------------8-----7-----------------------------------|
D|---8---8----8---8--/9-----7~~~~~~~g7\-5-0-----------------|
A|--------------------------------------------5/7~~~~~~~g7\-|
E|-6---6----6---6---------------------------0---------------|

e|----------------------------------------------------------|
B|------8b--------------------------------------------------|
G|----7-----------------------------------------------------|
D|-/9------7~~~~~g7\-/5-0------------------5-7-7Bb-5~~~~~~~-|
A|--------------------------5/7~~~~~g7\-5/7-----------------|
E|------------------------0---------------------------------|

e|----------------------------------------------------------|
B|----------------------------------------------------------|
G|-------------------------------------------7-7-9~~~~~-----|
D|-5-0-----------------5-7Bb-5/7~~~~~-5-0-/9----------------|
A|--------------7\-5/7--------------------------------------|
E|-----0-3~~~~~~----------------------------------------12\-|


[Verse]

                    T T    T T  T
e|----------------------------------------------------------|
B|---8-8----8-8--8--3-3----5-5--5---------------------------|
G|---7-7----7-7--7--4-4----6-6--6---------------------------|
D|---6-6----6-6--6--5-5----7-7--7---------------------------|
A|---7-7----7-7--7------------------------------------------|
E|-0----------------3-3----5-5--5---------------------------|(x5)

the part that pauses ('Scuse me, while I kiss the sky!)

e|----------------------------------------------------------|
B|-----------------8b-------8b~~~~--------------------------|
G|-9/11-9-7------7--------7---------------------------------|
D|------------/9-------/9-----------------------------------|
A|-7/9--7-5-------------------------------------------------|
E|----------------------------------------------------------|


[Verse] (x3)

[Pause Part 2]

 (Whatever it is, that girl; put a spell on me!)
e|----------------------------------------------------------|
B|-----------------8b-------8b-------12Bb-------12Bb--------|
G|-9/11-9-7------7--------7--------9----------9-------------|
D|------------/9-------/9------/11--------/11---------------|
A|--7/9--7-5------------------------------------------------|
E|----------------------------------------------------------|

e|--------15~~~----------15~~-------------------------------|
B|---------------------------------15-----1515--15----------|
G|-----12------------12-------14Bb---14Bb---14Bb14Bb--------|
D|-/14-----------/14----------------------------------------|
A|----------------------------------------------------------|
E|----------------------------------------------------------|


[Guitar Solo]

e|----------------------------------------------------------|
B|----------------------------------------------------------|
G|-16h18-16h18p16/14---14h16p14/13-13h14--14B---------------|
D|---------------------------------------------16---14------|
A|----------------------------------------------------------|
E|----------------------------------------------------------|

e|----------------------------------------------------------|
B|----------------------------------------------------------|
G|-12-14-12----12~~~~-11/12\11-11---------------------------|
D|----------14--------------------14-12----12-14-12-11-12---|
A|----------------------------------------------------------|
E|----------------------------------------------------------|

e|----------------------------------------------------------|
B|----------------------------------------------------------|
G|----------------------------------------------------------|
D|-------14--16p14h16p14p12-12--14-14/16-12~~~~-16-12-16-12-|
A|-14/16----------------------------------------------------|
E|----------------------------------------------------------|

e|------------12----------------12h14p12---12---------------|
B|--------------12-----------------------15---14h15p14--14--|
G|----------------12-----11-12------------------------------|
D|-16--12-----------12--------------------------------------|
A|----------------------------------------------------------|
E|----------------------------------------------------------|

e|----------------------------------------------------------|
B|-12/14--12h14p12--------15--------------------------------|
G|-----------------14B-------14B----------------------------|
D|----------------------------------------------------------|
A|----------------------------------------------------------|
E|----------------------------------------------------------|


[Interlude]

e|----------------------------------------------------------|
B|------8b-------------------------------------------8b-----|
G|----7-------------------------------------------7---------|
D|-/9------7~~~~~~~g7\-/5-0-------------------/9------------|
A|----------------------------5/7~~~~~~~~~~~~---------------|
E|--------------------------0-------------------------------|

e|----------------------------------------------------------|
B|----------------------------------------------------------|
G|-----------------------------------------7B---------------|
D|-7~~~~~~~~g7\-/5-0----------------5h7-7B-7Bb-g7~~~~~~~-5--|
A|---------------------5/7~~~~--5/7-------------------------|
E|-------------------0--------------------------------------|

e|E----------------------------------------------------------|
B|----------------------------------8b----------------------|
G|--------------------------------7-------------------------|
D|---5h7-7-7Bb--5/7------------/9------7~~~~~~g7\-/5-0------|
A|-7--------------------------------------------------------|
E|------------------3~~~~~~~~~-------------------------3----|

e|----------------------------------------------------------|
B|----------------------------------------------------------|
G|----------------------------------------------------------|
D|-7~~~~~~~g7\--/5-0----------------------------------------|
A|---------------------5/7~~~~~-----------------------------|
E|-------------------3--------------------------------------|


[Verse] (x3)

then Pause part (tomorrow, or just the end of time?)
play the first one


[Outro]

e|----------------------------------------------------------|
B|------------------------------12-14-15--14-12h14p12-------|
G|--------12~~~~--------12~~~~------------------------14-12-|
D|-----12------------12-------------------------------------|
A|-/14-----------/14----------------------------------------|
E|----------------------------------------------------------|

Play this as along as you wan't, or make up a little solo to it don't care but what Jimi
does is he does this for along time.

    HB
e|----------------------------------------|
B|-15Bb~~~~~~~~~~~~~~~~~~~~~~-------------|
G|----------------------------------------|
D|----------------------------------------|
A|----------------------------------------|
E|----------------------------------------|


************************************

| b      Bend
| /      Slide up
| \      Slide down
| ~      vibrato
| h      Hammer-on
| p      Pull-off
| g      Grace note
| ~~~~~  tide note

************************************
Suggest correction
comments
print report bad tab
33 comments total. Showing first comments.
0 reply
jobojoe 0 Mar 29, 2002 12:00 AM

absolutly correct,i know the song

0 reply
Floyd84yu 50 Apr 17, 2002 12:00 AM

Good job
Keep on tabbing!

0 reply
guitardude72565 30 Apr 24, 2003 12:00 AM

great tab dude but what do the g`s after the ~~~~~~~~~~ mean great tab though

guest
You may want to rate the tab now too:
select rating
Wanna post a correction for this tab? Suggest correction