Oops, an error
Loading. Please wait.

Purple Haze Bass

version 3
version 3
15,567 views 81 this week
3 commentsread comments
1 2 3 4 5
x 18
add to favorites
launch autoscroll
font size
0
reset
guitar tuner
backing track
0:00
0:00
×
Best way to learn
"Purple Haze"
Autoscroll
slow
fast
+/-
esc
set tempo
stop
Author
Difficulty
intermediate
Purple Haze by Jimi Hendix
Recorded and Released by Jimi in early 1967
This was his second single that peaked at Number 3 in UK charts.
Original Bassist: Noel Redding
Tabbed by bass50611. Think is more or less what Noel Redding
played on original recording. Guitar starts in Bb over first bit.
Any comments e-mail bass254@btinternet.com

Intro: (First Bit)       (Play This Second Bit x2)
G|---9---9---9---9-||----9---9---9---9---9---9---9---9---|
D|-----------------||------------------------------------|
A|-7---7---7---7---||---7---7---7---7---7---7---7---7----|
E|-----------------||------------------------------------|

Pre-Verse Solo:    (Play this x2)
G|---------------------------|
D|---------------------------|
A|---7-7-7-7----5------4-5---|
E|------------33-3---55------|

Verse:     (Play This x3)    (End 3rd Time)
G|---------------------------| |-------||---------------------12--------12-|
D|---------------------------| |-------||-------------------12--------12---|
A|---7-7-7-7----5------4-5---| |---7---||---7/9-7-5---12h14------12h14-----|
E|------------33-3---55------| |-------||----------------------------------|

Repeat Verse:

Bridge and Solo:
G|------------------------------------9----9----------------------|
D|----------------------------------------------------------------|
A|------------------------55555555---7---77---7h9---7h9---555-4---|
E|---55555555---77777777------------------------------------------|

G|----9----9---------------------9----9----------------------|
D|-----------------------------------------------------------|
A|---7---77---7h9---7h9---555-4-7---77---7h9---7h9---555-4---|
E|-----------------------------------------------------------|

G|----9----9----------------------|
D|--------------------------------|
A|---7---77---7h9---7h9---555-4---|
E|--------------------------------|

Repeat Second Bit Of Intro:

Repeat Verse

Repeat Bridge:

Outro:  (Repeat To Fade)
G|----9----9----------------------|
D|--------------------------------|
A|---7---77---7h9---7h9---555-4---|
E|--------------------------------|
Suggest correction
comments
print report bad tab
3 comments total.
0 reply
slappadauke 10 Oct 20, 2012 11:48 AM

Great tab. Just a note that the intro is octave E's like you have as the 'second part' the whole time. The guitar is playing the Bb lick with the bass doing the E lick. Cheers

0 reply
bass50611 11,711 Nov 14, 2012 12:48 AM

Thanks for your comment. I have had another listen and your right! Have amended my tab

0 reply
arrell 207 Nov 19, 2012 04:10 PM

This is way more accurate AND groovier than the currently most popular bass tab of this song on UG. Great work!

guest
You may want to rate the tab now too:
select rating
Wanna post a correction for this tab? Suggest correction