Oops, an error
Loading. Please wait.

Purple Haze Tab

version 3
50,321 views 153 this week
10 commentsread comments
1 2 3 4 5
x 22
add to favorites
launch autoscroll
font size
0
reset
how to read this tab
guitar tuner
backing track
0:00
0:00
×
Best way to learn
"Purple Haze"
Autoscroll
slow
fast
+/-
esc
set tempo
stop
Author
[Intro]
e|-----------------------|
B|-----------------------|
G|-----------------8-----|
D|----8---8---8----8-----|
A|-----------------------|
E|--6---6---6---6--------|

e|--------------------------|
B|--------8-----------------|
G|------7-------------------|
D|--5s9-----7~-5------------|
A|---------------5---5s7~---|
E|-----------------0--------|  (x2)

e|--------------------------|
B|--------------------------|
G|--------------------------|
D|------5-7-7b8r7--5--------|
A|--5s7--------------0------|
E|---------------------0-3~-|

e|-----------------------------------|
B|-----------------------------------|
G|----------------------------7-7-9~-|
D|-------5-7-5-7b8r7--5-0-7s9--------|
A|--5h7------------------------------|
E|-----------------------------------|

[Chord Section
]
e|-----0-0-0-0-0----3-3-----5-5------|
B|-----8-8-8-8-8----3-3-----5-5------|
G|-----7-7-7-7-7----4-4-----6-6------|
D|-----6-6-6-6-6----5-5-----5-5------|
A|-----7-7-7-7-7----5-5-----7-7------|
E|--0--0-0-0-0-0--3-3-3-3s5-5-5------|(repeat many times
)

Then...
e|-----------------------------------|
B|----------------8------8-----------|
G|--9s11-9-7----7------7-------------|
D|------------9------9---------------|
A|--7s9--7-5-------------------------|
E|-----------------------------------|

[Chord Section]
e|-----0-0-0-0-0----3-3-----5-5------|
B|-----8-8-8-8-8----3-3-----5-5------|
G|-----7-7-7-7-7----4-4-----6-6------|
D|-----6-6-6-6-6----5-5-----5-5------|
A|-----7-7-7-7-7----5-5-----7-7------|
E|--0--0-0-0-0-0--3-3-3-3s5-5-5------|(repeat many times)

Then...
e|-----------------------------------|
B|----------------8------8-----------|
G|--9s11-9-7----7------7-------------|
D|------------9------9---------------|
A|--7s9--7-5-------------------------|
E|-----------------------------------|

Then...

e|---------------------------15---------15-12-|
B|--------12-------12-------------------------|
G|------9--------9---------12---------12------|
D|--9s11-----9s11-----12s14------12s14--------|
A|--------------------------------------------|
E|--------------------------------------------|

Then...

e|---------------------------------------------------|
B|-----15---15---------------------------------------|
G|--14b--14b-----16-16h18p16h18p16s14-14-14h16p14s13-|
D|---------------------------------------------------|
A|---------------------------------------------------|
E|---------------------------------------------------|

e|------------------------------------------------------------|
B|------------------------------------------------------------|
G|--14-13-------12h14p12---12~-11s12-11-----------------------|
D|--------16-14----------14------------14-12~-12-14-12-11-12--|
A|------------------------------------------------------------|
E|------------------------------------------------------------|

e|------------------------------------------------------12----|
B|------------------------------------------------------12----|
G|------------------------------------------------------12----|
D|-------14-16~14-12-14-14s16-12--16-12-16-12-16-12~~---12----|
A|--14s16-----------------------------------------------------|
E|------------------------------------------------------------|

e|----------14-12h14p12----12---------------------------------|
B|----------------------15----14h15p14-12-14-----15----15-----|
G|----11-12-----------------------------------14b----14b------|
D|--14--------------------------------------------------------|
A|------------------------------------------------------------|
E|------------------------------------------------------------|

[Instrumental]
e|-----------------------|
B|-----------------------|
G|-----------------8-----|
D|----8---8---8----8-----|
A|-----------------------|
E|--6---6---6---6--------|

e|--------------------------|
B|--------8-----------------|
G|------7-------------------|
D|--5s9-----7~-5------------|
A|---------------5---5s7~---|
E|-----------------0--------|  (x2)

e|--------------------------|
B|--------------------------|
G|--------------------------|
D|------5-7-7b8r7--5--------|
A|--5s7--------------0------|
E|---------------------0-3~-|

e|-----------------------------------------|
B|------------------------8----------------|
G|----------------------7---7--------------|
D|--5---5-7-5-------5s9--------5-----------|
A|----7-------7------------------5---5s7---|
E|--------------3------------------3-------|

[Chord section
(the only other part of the song is this)
e|-----------------------------------|
B|--12-14-15-14-12-------15b---------|(hold bend and
G|-----------------14-12-------------| keep picking)
D|-----------------------------------|
A|-----------------------------------|
E|-----------------------------------|



************************************

| ~  Vibrato
| r  Release
| b  Bend
| h  Hammer-on
| p  Pull-off
| s  

************************************
Suggest correction
comments
print report bad tab
10 comments total. Showing first comments.
0 reply
jett 25 Sep 19, 2003 08:00 PM

this tab blows

0 reply
smellyjosh 236 Sep 01, 2004 08:00 PM

This is immense man. Best Hendrix tab out there

+1 reply
Civil_War 10 Sep 05, 2004 08:00 PM

wrong!

guest
You may want to rate the tab now too:
select rating
Wanna post a correction for this tab? Suggest correction