Oops, an error
Loading. Please wait.

Purple Haze Tab

version 5
58,178 views 90 this week
5 commentsread comments
1 2 3 4 5
accurate
x 9
add to favorites
launch autoscroll
font size
0
reset
how to read this tab
guitar tuner
Autoscroll
slow
fast
+/-
esc
set tempo
stop
Help us to improve Ultimate-Guitar.com Take our survey!
×
Author
-------------------------------------------------------------------------------
			       Purple Haze - Jimi Hendrix
-------------------------------------------------------------------------------
                           Tabbed By: AltnRockFan


					
e|---------------------------------------------------------------------------|
B|---------------------------8b--------------------8b------------------------|
G|-------------------------7---------------------7---------------------------|
D|----8-----8-----8----8/9-------7-7\5-0-------/9-----7-7\5-0----------------|
A|-----------------------------------------5/7------------------5/7----------|
E|-6-----6-----6----6--------------------0--------------------0--------------|

e|---------------------------------------------------------------------------|
B|---------------------------------------------------------------------------|
G|-----------------------------------------7-7-9-----------------------------|
D|-----5-7B-5/7-5-0---------5-7B-5/7-5-0-9-----------------------------------|
A|-5/7------------------5/7--------------------------------------------------|
E|------------------0-3------------------------------------------------------|

						
   E7#9	    G    A    E7#9     G    A    E7#9     G    A    E7#9     G    A		 
e|---------------------------------------------------------------------------|
B|-8-8-8-8--3-3--5-5--8-8-8-8--3-3--5-5--8-8-8-8--3-3--5-5--8-8-8-8--3-3--5-5|
G|-7-7-7-7--4-4--6-6--7-7-7-7--4-4--6-6--7-7-7-7--4-4--6-6--7-7-7-7--4-4--6-6|
D|-6-6-6-6--5-5--7-7--6-6-6-6--5-5--7-7--6-6-6-6--5-5--7-7--6-6-6-6--5-5--7-7|
A|-7-7-7-7--x-x--x-x--7-7-7-7--x-x--x-x--7-7-7-7--x-x--x-x--7-7-7-7--x-x--x-x|
E|----------3-3--5-5-----------3-3--5-5-----------3-3--5-5-----------3-3--5-5|
 
   E7#9	    G    A    	  E5F#5      G       G		 E7#9     G    A
e|---------------------------------------------------------------------------|
B|-8-8-8-8--3-3--5-5----------------------8b------8b~~~--8-8-8-8--3-3--5-5---|
G|-7-7-7-7--4-4--6-6-------9/11-9-7-----7-------7--------7-7-7-7--4-4--6-6---|
D|-6-6-6-6--5-5--7-7-------x/x--x-x--/9------/9----------6-6-6-6--5-5--7-7---|
A|-7-7-7-7--x-x--x-x-------7/9--7-5----------------------7-7-7-7--x-x--x-x---|
E|----------3-3--5-5----------------------------------------------3-3--5-5---|

   E7#9	    G    A    E7#9     G    A       E5F#5 E5D5  G       G 	 	
e|---------------------------------------------------------------------------|
B|-8-8-8-8--3-3--5-5--8-8-8-8--3-3--5-5----------------------8b------8b------|
G|-7-7-7-7--4-4--6-6--7-7-7-7--4-4--6-6------9/11-9-7-----7-------7----------|
D|-6-6-6-6--5-5--7-7--6-6-6-6--5-5--7-7------x/x--x-x--/9------/9------------|
A|-7-7-7-7--x-x--x-x--7-7-7-7--x-x--x-x------7/9--7-5------------------------|
E|----------3-3--5-5-----------3-3--5-5--------------------------------------|

    A         A         Em          Em
e|----------------------------15~~~--------15~~~-----------------------------|
B|-------12B-------12B-------------------------------15-----15-----15-----15-|
G|-----9---------9---------12-----------12-------14B----14B----14B----14B----|
D|-/11-------/11-------/14----------/14--------------------------------------|
A|---------------------------------------------------------------------------|
E|---------------------------------------------------------------------------|

							
e|---------------------------------------------------------------------------|
B|---------------------------------------------------------------------------|
G|-16h18-16h18p16/14---14h16p14/13-13h14--14B----------12-14-12----12~~~~----|
D|---------------------------------------------16---14----------14-----------|
A|---------------------------------------------------------------------------|
E|---------------------------------------------------------------------------|



e|---------------------------------------------------------------------------|
B|---------------------------------------------------------------------------|
G|-11/12\11-11---------------------------------------------------------------|
D|-------------14-12----12-14-12-11-12---------14--16p14h16p14p12-12-14-14/16|
A|---------------------------------------14/16-------------------------------|
E|---------------------------------------------------------------------------|

e|-----------------------------12----------------12h14p12---12---------------|
B|-------------------------------12-----------------------15---14h15p14—14---|
G|---------------------------------12-----11-12------------------------------|
D|12~~~~-16-12-16-12-16--12----------12--------------------------------------|
A|---------------------------------------------------------------------------|
E|---------------------------------------------------------------------------|

e|---------------------------------------------------------------------------|
B|-12/14--12h14p12--------15-------------------------------------------------|
G|-----------------14B-------14B---------------------------------------------|
D|---------------------------------------------------------------------------|
A|---------------------------------------------------------------------------|
E|---------------------------------------------------------------------------|

					
e|----------------------------------------------------------------------------|
B|------8b--------------------8b----------------------------------------------|
G|----7---------------------7------------------------------7B-----------------|
D|-/9------7-7\5 0-------/9------7-7\5-0------------5h7-7B-7B-7---5---5h7-7-7B|
A|-------------------5/7-------------------5/7--5/7-----------------7---------|
E|-----------------0---------------------0------------------------------------|

e|----------------------------------------------------------------------------|
B|---------------------8b-----------------------------------------------------|
G|-------------------7--------------------------------------------------------|
D|-5/7------------/9------7-7\5-0---7-7/5-0-----------------------------------|
A|--------------------------------------------5/7~~~~~------------------------|
E|-----3~~~~~~~~~-----------------3---------3---------------------------------|

					
   E7#9	    G    A    E7#9     G    A    E7#9	  G    A        E5F#5E5D5
e|---------------------------------------------------------------------------|
B|-8-8-8-8--3-3--5-5--8-8-8-8--3-3--5-5--8-8-8-8--3-3--5-5-------------------|
G|-7-7-7-7--4-4--6-6--7-7-7-7--4-4--6-6--7-7-7-7--4-4--6-6------9/11-9-7-----|
D|-6-6-6-6--5-5--7-7--6-6-6-6--5-5--7-7--6-6-6-6--5-5--7-7------x/x--x-x-----|
A|-7-7-7-7--x-x--x-x--7-7-7-7--x-x--x-x--7-7-7-7--x-x--x-x------7/9--7-5-----|
E|----------3-3--5-5-----------3-3--5-5-----------3-3--5-5-------------------|

   G        G
e|---------------------------------------------------------------------------|
B|------8b------8b-----------------------------------------------------------|
G|----7-------7--------------------------------------------------------------|
D|-/9------/9----------------------------------------------------------------|
A|---------------------------------------------------------------------------|
E|---------------------------------------------------------------------------|

					



e|---------------------------------------------------------------------------|
B|------------------------------12-14-15--14-12h14p12--------15B~~~~~~~~~~~~~|
G|--------12~~~~--------12~~~~------------------------14-12------------------|
D|-----12------------12------------------------------------------------------|
A|-/14-----------/14---------------------------------------------------------|
E|---------------------------------------------------------------------------|
Suggest correction
What's this?
You can suggest a correction to this tab. Community and Mods will review your correction and vote to approve or reject it.
comments
print report bad tab
5 comments total. Showing first comments.
+1 reply
stinkycheeseman 26 wrote on May 1 2004, 12:00 am

Very good, I'm impressed. Make more tabs!!!!!!!!!

-1 reply
Civil_War 30 wrote on September 6 2004, 12:00 am

wrong!!!

+1 reply
Rocking-hayley 15 wrote on February 24 2006, 02:35 pm

I think this is good! Nice work

guest
You may want to rate the tab now too:
select rating
Please do not post tabs as comments. Select "correction" instead!