Oops, an error
Loading. Please wait.

Purple Haze Tab

version 6
71,874 views 18 this week
13 commentsread comments
1 2 3 4 5
accurate
x 46
add to favorites
launch autoscroll
font size
0
reset
how to read this tab
guitar tuner
Autoscroll
slow
fast
+/-
esc
set tempo
stop
Help us to improve Ultimate-Guitar.com Take our survey!
×
Author
b=bend
\=slide
*=let ring               If you like this tab please rate it
h=hammer
p=pull off

                          2 times
-|------------------|----------------------|---------------------------------------------|
-|------------------|------8b--------------|---------------------------------------------|
-|------------------|----7-----------------|--------------------------------------7-7\9--|
-|---8---8---8---8--|--9------7-5----------|----5-7b-5-5-----------5-7b-5h7-5---9--------|
-|------------------|--------------5---\7--|--7----------5-------7------------5----------|
-|--6---6---6---6---|----------------0-----|----------------0-3b-------------------------|

           
     (E7#9)     5x            1x               1x
-|--------------------------|-----|----------------------------|
-|--8-8-8-8-8-8-------------|--8--|-----------------8b-----8b--|
-|--7-7-7-7-7-7-------------|--7--|--13--11--9----7------7-----|
-|--6-6-6-6-6-6-------------|--6--|---x---x--x--9------9-------|
-|--7-7-7-7-7-7---5-5--7-7--|--7--|--11---9--7-----------------|
-|--0-0-0-0-0-0---3-3--5-5--|--0--|----------------------------|


     (E7#9)     3x            1x               1x
-|--------------------------|-----|----------------------------|
-|--8-8-8-8-8-8-------------|--8--|-----------------8b-----8b--|
-|--7-7-7-7-7-7-------------|--7--|--13--11--9----7------7-----|
-|--6-6-6-6-6-6-------------|--6--|---x---x--x--9------9-------|
-|--7-7-7-7-7-7---5-5--7-7--|--7--|--11---9--7-----------------|
-|--0-0-0-0-0-0---3-3--5-5--|--0--|----------------------------|


    **SOLO**
-|--------------------------15b-------15b------------------|
-|-------12b------12b--------------------------15------15--|
-|-----9--------9--------12--------12-----14b*----14b*-----|
-|--11-------11-------14--------14-------------------------|
-|---------------------------------------------------------|
-|---------------------------------------------------------|

Then he starts playing with a ton of effect and ringing


   **SOLO** (cont'd)
-|------------------------------------------------------|----------------------|
-|--12h14--12h14--12h14--12--14--12\10--10h12p10\9-10b--|----------------------|
-|------------------------------------------------------|------12h14p12----12--|
-|------------------------------------------------------|--\14----------14-----|
-|------------------------------------------------------|----------------------|
-|------------------------------------------------------|----------------------|


   **SOLO** (cont'd)
-|----------------------------|----------------------------|-------------------------|
-|----------------------------|----------------------------|-------------------------|
-|--11h12p11\9--7--7-9-7-6-7--|--7-9-11--9h11p9\7--9-11-7--|--11p9--11p9--11-7-9h11--|
-|----------------------------|----------------------------|-------------------------|
-|----------------------------|----------------------------|-------------------------|
-|----------------------------|----------------------------|-------------------------|


   **SOLO** (cont'd)
-|--14h15--14--12h14--12----12-----------------------------------|
-|-----------------------15----14-15--14h15p14p12-------15-------|
-|-------------------------------------------------14b*----14b*--|
-|---------------------------------------------------------------|
-|---------------------------------------------------------------|
-|---------------------------------------------------------------|


         2x                          1x                       1x
-|----------------------|----------------------------|----------------------|
-|------8b--------------|----------------------------|------8b--------------|
-|----7-----------------|----------------------------|----7-----------------|
-|--9------7--5---------|-----5-7-7b\----5h7-5-------|--9------7--5---------|
-|--------------5---\7--|--\7----------7-------5-----|--------------5---7\--|
-|----------------0-----|------------------------3b--|----------------0-----|


     (E7#9)     3x             1x                1x 
-|--------------------------|-----|----------------------------|
-|--8-8-8-8-8-8-------------|--8--|-----------------8b-----8b--|
-|--7-7-7-7-7-7-------------|--7--|--13--11--9----7------7-----|
-|--6-6-6-6-6-6-------------|--6--|---x---x--x--9------9-------|
-|--7-7-7-7-7-7---5-5--7-7--|--7--|--11---9--7-----------------|
-|--0-0-0-0-0-0---3-3--5-5--|--0--|----------------------------|
Suggest correction
comments
print report bad tab
13 comments total. Showing first comments. show 1 bad comment
+4 reply
FOBSOADGNR 21 wrote on January 16 2006, 04:21 pm

GREAT TAB

0 reply
TotalyHAB 90 wrote on July 24 2006, 11:19 pm

hmm solo is better then the rest but its still pissing me off y the hell it dosnt sound like what hendrix does??????????????

guest
You may want to rate the tab now too:
select rating
Please do not post tabs as comments. Select "correction" instead!