Oops, an error
Loading. Please wait.

Red House Tab

version 2
version 2

Whole song

265,483 views 111 this week
29 commentsread comments
1 2 3 4 5
x 56
add to favorites
launch autoscroll
font size
0
reset
how to read this tab
guitar tuner
backing track
0:00
0:00
×
Best way to learn
"Red House"
Autoscroll
slow
fast
+/-
esc
set tempo
stop
Tuning
D# G# C# F# A# D#
[Intro]
                              B7
    Gtr I   
D#|------------------------||-----11----11------------11----11----11-|
A#|------------------------||-/10-10----10----(10)----10----10----10-|
F#|------------------------||-/11----11----11------11----11----11----|
C#|------------------------||----------------------------------------|
G#|------------------------||----------------------------------------|
D#|--------------x-(x)-----||----------------------------------------|
  |
  | Gtr II 
D#|------------------------||----------------------------------------|
A#|------------------------||----------------------------------------|
F#|--------------------(0)-||----------------------------------------|
C#|------------------------||----------------------------------------|
G#|------------------------||------------9-------------------9-------|
D#|--------------------(0)-||---7--------7----------7--------7-------|


    Bdim7
     
D#|-------10----10---10----10----10---10---|
A#|-10s=9--9-----9-9--9-----9-----9-9--9---|
F#|-11s10----10---------10----10------10---|
C#|----------------------------------------|
G#|----------------------------------------|
D#|----------------------------------------|
  |
  |
D#|----------------------------------------|
A#|----------------------------------------|
F#|----------------------------------------|
C#|----------------------------------------|
G#|--------------9----------------9--------|
D#|-----7--------7-------7--------7--------|


    B5   N.C.
                  ~~~~~         ~~~~~         ~~~~~
    
D#|------------------------------------------------|
A#|------10b12==(10)r--10b12==(10)r--10b12==(10)r--|
F#|------------------------------------------------|
C#|------------------------------------------------|
G#|-9----------------------------------------------|
D#|-7----------------------------------------------|
  |
  | 
D#|------------------------------------------------|
A#|------------------------------------------------|
F#|------------------------------------------------|
C#|------------------------------------------------|
G#|-9----------------------------------------------|
D#|-7----------------------------------------------|

  
     
D#|---------------------------7------9-7------------------|
A#|-10b12-10-10pb12-10------7---10-7-----10-7-------------|
F#|--------------------9b11-------------------9b11==(9)r--|
C#|-------------------------------------------------------|
G#|-------------------------------------------------------|
D#|-------------------------------------------------------|
  |
  |  
D#|-------------------------------------------------------|
A#|-------------------------------------------------------|
F#|-------------------------------------------------------|
C#|-------------------------------------------------------|
G#|-------------------------------------------------------|
D#|-------------------------------------------------------|


    E5                E6     E5       E7
                 ~~~~~~~~~~~~~~~~~~~~~~~~~
D#|------------------------------------------|
A#|-------------------------------(7)-(7)----|
F#|-7-9b11==(9)r-7----(7)----(7)--(7)-(7)----|
C#|------------------------------------------|
G#|------------------------------------------|
D#|------------------------------------------|
  |
  | 
D#|------------------------------------------|
A#|------------------------------------------|
F#|------------------------------------------|
C#|------------------------------------------|
G#|-2------------------2---4--2--------5---4-|
D#|-0---------------0--3---4--0----0---0-----|


    E5               E6     E7
                   ~~~~~~             ~~~
D#|--------------------------------7-------7---------------------|
A#|------------------------------7---10------<7>-----------------|
F#|-7h8-9b11==(9)r-7-(7)----9b11-------------<7>---9b11====(9)r--|
C#|--------------------------------------------------------------|
G#|--------------------------------------------------------------|
D#|--------------------------------------------------------------|
  |
  |
D#|--------------------------------------------------------------|
A#|--------------------------------------------------------------|
F#|--------------------------------------------------------------|
C#|--------------------------------------2-----------------------|
G#|-2-----------------2---4----------------5-------------5s=9----|
D#|-0--------------0--3---4-0------------------------------------|


    B5           B6        B7              B6
                            |3|  
D#|---7--7----------------------------------------|
A#|-7---10p7---7h=9-7-----------------------------|
F#|----------9---------9-7h=8---------------------|
C#|---------------------------9-7-----------------|
G#|-------------------------------9--8-7-5s=7-----|
D#|-----------------------------------------------|
  |
  |
D#|-----------------------------------------------|
A#|-----------------------------------------------|
F#|-----------------------------------------------|
C#|-----------------------------------------------|
G#|-9--------9---11---11---12-------12-----11--11-|
D#|-7-------------7---------7---------------7-----|


    B5                B6             B5           B6
              ~~                   ~~~~~~~   
D#|---------------------------------------------------------------|
A#|-------------------------------12-(12)-14b16------14b16-14b16--|
F#|----------------------11h12s13---------------------------------|
C#|-----------9----11s13------------------------------------------|
G#|------9-11-----------------------------------------------------|
D#|-9s11----------------------------------------------------------|
  |
  |   
D#|---------------------------------------------------------------|
A#|---------------------------------------------------------------|
F#|---------------------------------------------------------------|
C#|---------------------------------------------------------------|
G#|----9---------9----11-------11------9--------9-11--------7-----|
D#|----7---------------7---------------7-----------7--------------|


  F#5      F#6        F#5                              F#6
   ~~~~~       ~~~~~                                    ~~~
                                               |--3--|  
|----------14---------14--------------------------------------|
|-14b16-------14b16------14pb16==(14)r(14)-12h14p12h14-12-----|
|-------------------------------------------------------------|
|-------------------------------------------------------------|
|-------------------------------------------------------------|
|-------------------------------------------------------------|
  |
  | 
D#|-------------------------------------------------------------|
A#|-------------------------------------------------------------|
F#|-------------------------------------------------------------|
C#|-------------------------------------------------------------|
G#|--4-----4--6-------6--4-----------------------4--------6---4-|
D#|--2-----2--2-------2--2--------------------------------2---2-|


    E5                             E6                               E7
                                     ~~~~~                        ~~~~~~~
D#|------------------------------------------------------------------------------14-|
A#|---15pb16==(15)r(15)b19====(15)-(15)r------15b19==(15)r(15)---12-(12)-14b16------|
F#|---------------------------------------------------------------------------------|
C#|---------------------------------------------------------------------------------|
G#|---------------------------------------------------------------------------------|
D#|---------------------------------------------------------------------------------|
  |
  | 
D#|---------------------------------------------------------------------------------|
A#|---------------------------------------------------------------------------------|
F#|---------------------------------------------------------------------------------|
C#|---------------------------------------------------------------------------------|
G#|-2--------------------------------2----4-2-------------------------5--------7s=9-|
D#|-0-----------------------0--------3----4-0------------------2------0-------------|


    B5                B6              B5  Bm6
        ~~
                       |3|
D#|------------------------7-------10p7--------9b11-7---------|
A#|-14-12-(12)\----------7---10--7---------------------7------|
F#|-----------------4s=8---------------------------------9b11-|
C#|-----------------------------------------------------------|
G#|-----------------------------------------------------------|
D#|-----------------------------------------------------------|
  |
  |  
D#|-----------------------------------------------------------|
A#|-----------------------------------------------------------|
F#|-----------------------------------------------------------|
C#|-----------------------------------------12----------------|
G#|--9----------9-----11--------11----9---9-11--------11------|
D#|--7-----------------7---------7--------7-------------------|


    B5             E7E#F#7       A#5
                        >
D#|--------------------------------||
A#|-7------------------------------||
F#|---7----------------------------||
C#|-----7--------------------------||
G#|----------9-(9)-----(9)---------||
D#|--------------------------------||
  |
  | 
D#|--------------------------------||
A#|--------------------------------||
F#|----------------7-8--9----9-----||
C#|----------------6-7--8----8-----||
G#|-9------9-------7-8--9----9---8-||
D#|-7----------------------------6-||


  [Verse]
    B5      B6    B7        B6        B5  E5  E6     E5   E7
                                |-3-|
D#|--------------------------7--7-------|----------------------|
A#|----------7------------7h=9----7-----|----------------------|
F#|-------7h=8----------------------7---|----------------------|
C#|-----------------------------------9-|----------------------|
G#|-------------------------------------|----------------------|
D#|-------------------------------------|-0--------------------|
  |
  | 
D#|-------------------------------------|----------------------|
A#|-------------------------------------|----------------------|
F#|-------------------------------------|----------------------|
C#|-------------------------------------|----------------------|
G#|-----9---11--9-12---12---11--------9-|-----2-2--4-2--2-5--4-|
D#|-7---7----7--7--7----7----7--------7-|-0---0-3--4-0----0----|


    B5             Bm6       B5             B6
              ~~~~~~~~~~              ~~~~
D#|--------7-----------------------------------7-----------|
A#|------7---10----(10)-7--------------------7---10-7----7-|
F#|-9b11-----------------------9b11==(9)r--------------9---|
C#|--------------------------------------------------------|
G#|--------------------------------------------------------|
D#|--------------------------------------------------------|
  |
  | 
D#|--------------------------------------------------------|
A#|--------------------------------------------------------|
F#|--------------------------------------------------------|
C#|--------------9--12-------------------------------------|
G#|-9------------9--11----11-9------------9-11--------11---|
D#|-7------------------------7---------------7-------------|


    B5   B6             B7               B6     B5
                                          ~~~
D#|---------------------------7---------------------|
A#|-----------7-7----10-------7---------------------|
F#|-9-----7h9------------9b11---7-9----7h=9p7-------|
C#|----9----------------------------9---------9-7---|
G#|-------------------------------------------------|
D#|-------------------------------------------------|
  |
  | 
D#|-------------------------------------------------|
A#|-------------------------------------------------|
F#|-------------------------------------------------|
C#|---------------------------------7---------------|
G#|-9--9-11-------11----12---------------11-----9---|
D#|-7-----7--------------7----------------7---------|


    E5        E6E5  E7             E5    E6   E5     E7  A#5
D#|---------------------7--------|--------------------------|
A#|-------------------7h9--7-----|--------------------------|
F#|--------------------------7---|--------------------------|
C#|----------------------------9s|=2----------(2)----(2)----|
G#|------------------------------|--------------------------|
D#|-0----------------------------|--------------------------|
  |
  | 
D#|------------------------------|--------------------------|
A#|------------------------------|--------------------------|
F#|------------------------------|--------------------------|
C#|-------------2----------------|--------------------------|
G#|-----2-----4-2---2---5------4-|-2-----2--4--2------5S=8--|
D#|-0-----3---4-0---0----------0-|-0---0-3--4--0---0--0--6--|


      B5    B6       B5       B6   B5          B6           B5    B6
      ~~             ~~
D#|------------------------------|---------------------------------------|
A#|------------------------------|---------------------------------------|
F#|-2s4------------4s2-----------|---------2s4-(4)-2---------------------|
C#|------------------------------|---2-3-4-----------4--3-2-0----------0-|
G#|------------------------------|-5--------------------------2----x-x-0-|
D#|------------------------------|---------------------------------------|
  |
  |  
D#|------------------------------|---------------------------------------|
A#|------------------------------|---------------------------------------|
F#|------------------------------|---------------------------------------|
C#|------------------------------|---------------------------------------|
G#|---9-----11--11---9-----9--11-|-9-------9---11------11---9-----11-----|
D#|---7---7--7-------7---7-7---7-|-7-------7----7-------7---7---7--7---0-|


    F#5   F#6   F#5        F#6   F#5 E5    E6   E5     E7
D#|--------------------------------|---------------------------|
A#|--------------------------------|---------------------------|
F#|--------------------------------|---------------------------|
C#|------------------------------4-|---------------------------|
G#|-4------------------------4h6---|---------------------------|
D#|-2-----2-----(2)--(2)-4s6-------|-0----------(0)----(0)-----|
  |
  | 
D#|--------------------------------|---------------------------|
A#|--------------------------------|---------------------------|
F#|--------------------------------|---------------------------|
C#|--------------------------------|---------------------------|
G#|-4---4-6---6--4----4----6-----4-|-2---2-2--4--2------5---4--|
D#|-2---2-4------4----4----2-----2-|-0---0-3--4--0---0--0------|


    B5         B6                B5          B6
                                           ~~~~~~
D#|-------------2---4---2---------------------------------|
A#|-3b4==(3)---(3)-(3)-(3)-3r(3)----------------------7-4-|
F#|----------------------------------4h6---4-(4)-6b8------|
C#|------------------------------4s6-4h6------------------|
G#|-------------------------------------------------------|
D#|-------------------------------------------------------|
  |
  | 
D#|-------------------------------------------------------|
A#|-------------------------------------------------------|
F#|-------------------------------------------------------|
C#|-------------------------------------------------------|
G#|-9--------9-11------------11--9-------9---11------11---|
D#|-7-----------7----------------7------------7-----------|


      B5      B6   B5A5F#7      A#5
                       ~~
D#|-4s7---------------------------||
A#|-4s7--------------7------------||
F#|--------------6s8--------------||
C#|-------------------------------||
G#|--------------------9----------||
D#|-------------------------------||
  |
  |  
D#|-------------------------------||
A#|-------------------------------||
F#|--------------------9----9-9---||
C#|------------------7-8----8-8---||
G#|---9-----9-11---9-7-9----9-9-8-||
D#|---7-----7--7---7------------6-||


[Verse]
  
    B5    B6                  B7        B6       B5  E5    E6    E5    E7  E6
                                         |3| |3|
D#|-------------7-------7--------------------------|-------------------------|
A#|-------------7h9-(9)---7------------------------|-------------------------|
F#|-------------------------7---------7h=9-7-------|-------------------------|
C#|----------------------------9-------------9p7h9-|-------------2-----------|
G#|------------------------------------------------|-------------------------|
D#|-7-----(7)-0------------------------------------|-0-----0-----------------|
  |
  |
D#|------------------------------------------------|-------------------------|
A#|------------------------------------------------|-------------------------|
F#|------------------------------------------------|-------------------------|
C#|------------------------------------------------|-------------------------|
G#|-9---9-11--------11--------12---12---11-------9-|-2---2-2---4-2-----5---4-|
D#|-7------7-------------------7----7----7-------7-|-0---0-3---4-0---0-0---0-|


  B5                B6        B7            B6
            ~~~~~~~~~~~~~~
                                             |--3---|  |-3-|  |-3--|
D#|--------7---------------------7----7---------------7------9--7------|
A#|------7---10b12====(10)r--------10---------------7---10p7------7h10-|
F#|-9b11---------------------------------------9b11--------------------|
C#|--------------------------------------------------------------------|
G#|--------------------------------------------------------------------|
D#|--------------------------------------------------------------------|
  |
  |
D#|--------------------------------------------------------------------|
A#|--------------------------------------------------------------------|
F#|--------------------------------------------------------------------|
C#|--------------------------------------------------------------------|
G#|-9---------------9--11----11-12---------12-11---------------11------|
D#|-7-------------------7-----7--7----------7--7----------------7------|


  B5               B6                        B7             B6     A5/E
                                                                 ~~
                    |-3--|         |-3--|                    |--4:3--|
D#|-------------------7--------------7------10-12-10---------------------|
A#|-(10)b12==(10)r------10p7------7----10-7----------12-10---------------|
F#|--------------------------9b11--------------------------11-10-9-7p==0-|
C#|----------------------------------------------------------------------|
G#|----------------------------------------------------------------------|
G#|----------------------------------------------------------------------|
  |
  | 
D#|----------------------------------------------------------------------|
A#|----------------------------------------------------------------------|
F#|----------------------------------------------------------------------|
C#|------------------------------------------------------------------7---|
G#|---9------------9-11-------------11---------12-------12----11-----7---|
D#|---7------------7--7--------------7----------7--------7-----7---------|


    E5    E6    E5      E7  E5        E6   E5    E7    A5B5
D#|---------------------------|-----------------------------|
A#|-----------------------5s3-|-----------------------------|
F#|---------------------------|-----------------------------|
C#|-------------------4s6-----|-----------------------------|
G#|---------------------------|-----------------------------|
D#|-0-----0-----0-------------|-0----------0-----(0)--------|
  |
  | 
D#|---------------------------|-----------------------------|
A#|---------------------------|-----------------------------|
F#|---------------------------|-----------------------------|
C#|---------------------------|-2---2----------2------------|
G#|-----2-2---4-----2---5-4-2-|-2-----4--4-2------5--4-7s9--|
D#|-0---0-3---4-0---0-------0-|-------3--4-0------0----5s7--|


    B5      B6                               B5         B6
                                                   ~~~~
D#|-------7-------7-------7-----------7------(7)-------------------------|
A#|-7-----7-------7-7------------------------------------7---------------|
F#|-9b11-----9b11---9b11r(9)b11==(9)r(9)b11==(9)r--9b11----9b11r(9)p7----|
C#|--------------------------------------------------------------------9-|
G#|----------------------------------------------------------------------|
D#|----------------------------------------------------------------------|
  |
  | 
D#|----------------------------------------------------------------------|
A#|----------------------------------------------------------------------|
F#|----------------------------------------------------------------------|
C#|----------------------------------------------------------------------|
G#|-9-----9-11-------------------11-----------9----9----11------------11-|
D#|-7-----7--7--------------------------------7----7-----7---------------|


    B5    B6         B5     B6  B5
    ~~           ~~~~~~~~
           |-3-|
D#|-----------------------------------|
A#|-----------------------------------|
F#|-7---------------------------------|
C#|--------9p7---7---(7)--------------|
G#|------------9----------------------|
D#|-----------------------x-----------|
  |
  |
D#|-----------------------------------|
A#|-----------------------------------|
F#|-----------------------------------|
C#|-----------------------------------|
G#|-9---9-11----------9-----11--9-6s4-|
D#|-7---7--7----------7---------7-----|


    F#5   F#6  F#5     F#6        E5    E6      E5    E7  F#5
D#|------------------9s11s9s6s9s|=7-----(7)-------------------|
A#|-----------------------------|-----------------------------|
F#|------------------9s11s9s6s9s|=7-----(7)-------------------|
C#|-----------------------------|-----------------------------|
G#|-----------------------------|-----------------------------|
D#|-----------------------------|-----------------------------|
  |
  | 
D#|-----------------------------|-----------------------------|
A#|-----------------------------|-----------------------------|
F#|-----------------------------|-----------------------------|
C#|-----------------------------|---------------2---2---------|
G#|-4---4-6--6-4---4----6-4-6---|-2------2----4-2---2-5-4-4/--|
D#|-2---2-2--2-2---2----2---2---|-0---0--3----4-0-----0---2/--|


    B5         B6           B5             B6
       ~~~~~~~~~~~~~
D#|--------------------7-----------------------------------|
A#|-----------------7----10-7------7---7-------------------|
F#|----9b11====(9)r-----------9b11---7------7s9s7----------|
C#|--------------------------------------9---------9p7-----|
G#|----------------------------------------------------9p7-|
D#|--------------------------------------------------------|
  |
  |
D#|--------------------------------------------------------|
A#|--------------------------------------------------------|
F#|--------------------------------------------------------|
C#|--------------------------------------------------------|
G#|-9--------9-11-----11----9----------9---11-----11-------|
D#|-7--------7--7-----------7----------7----7--------------|


    B5     B6 B5  F#7          A#5
                                ~~
D#|-------------------------------||
A#|-------------------------12-12-||
F#|----------------------11-------||
C#|-------------------------------||
G#|-------------------------------||
D#|-------------------------------||
  |
  |
D#|-------------------------------||
A#|-------------------------------||
F#|-------------7-9-------9-------||
C#|-------------7-8----8--8-------||
G#|-9----9-11-9-7-9--7-9--9--7--8-||
D#|-7----7--7-7-----------------6-||


[Solo]

    B5     B6        B7           E6
     ~~                  ~~~~~~~
D#|-----10-12b14-----10-----------10b12==(10)r-------|
A#|-12------------------12-(12)----------------------|
F#|--------------------------------------------------|
C#|----------------------------------------------x---|
G#|--------------------------------------------------|
D#|--------------------------------------------------|
  |
  |  
D#|--------------------------------------------------|
A#|--------------------------------------------------|
F#|--------------------------------------------------|
C#|-----------------------------7----------------0---|
G#|--9---9-11-----11-12-----------11-------------0---|
D#|--7---7--7------7--7------------7-----------------|


  E5         E6       E5             E7                F#5
                                            |--3--|     |--3---|
D#|------------14b16----14-12-14-10-12-12b14-10h12p10----10h=12p10----|
A#|---------12----------------------------------------12-----------12-|
F#|---11s13-----------------------------------------------------------|
C#|-------------------------------------------------------------------|
G#|-------------------------------------------------------------------|
D#|-------------------------------------------------------------------|
  |
  |
D#|-------------------------------------------------------------------|
A#|-------------------------------------------------------------------|
F#|-------------------------------------------------------------------|
C#|----------2--------------------------------------------------------|
G#|-2--------2--2-----4--2--------2-----5-----4-----------4/----------|
D#|-0-----------3-----4--0--------------------------------2/----------|


  B5                    B6                       B7               B6
   |--3--|                     |--3--|                   |-3--|
D#|-10h12p10----10-12b14==(12)r-10h12p10-----------------7------------------------|
A#|----------12--------------------------12-10b12==(10)r-7-7h10p7-----------------|
F#|---------------------------------------------------------------9--7---7h8------|
C#|--------------------------------------------------------------------9----------|
G#|-------------------------------------------------------------------------------|
D#|-------------------------------------------------------------------------------|
  |
  | 
D#|-------------------------------------------------------------------------------|
A#|-------------------------------------------------------------------------------|
F#|-------------------------------------------------------------------------------|
C#|--------------------------------------------------------7----------------------|
G#|--9--------------9------11-----------------------12--------------11----------7-|
D#|--7----------------------7-------------7----------7---------------7------------|


    B5    B6                    B7                   B6
D#|---------------7-------9p7---10p7---10p7---10p7---10p7---10p7---10p7---|
A#|-------------7---10p7------7------7------7------7------7------7------7-|
F#|--------9b11-----------------------------------------------------------|
C#|-----------------------------------------------------------------------|
G#|-----------------------------------------------------------------------|
D#|-----------------------------------------------------------------------|
  |
  | 
D#|-----------------------------------------------------------------------|
A#|-----------------------------------------------------------------------|
F#|-----------------------------------------------------------------------|
C#|-----------------------------------------------------------------0-----|
G#|-9---9-11-------------11-----12------------12-----11-------------0-----|
D#|-7------7---------------------7--------------------7-------------------|


    E5                   E6                   E5                   E7
D#|-10p7---10p7---10p7---10p7---10p7---10p7---10p7---10p7---10p7---10p7---10p7---10b12===|
A#|------7------7------7------7------7------7------7------7------7------7------7---------|
F#|--------------------------------------------------------------------------------------|
C#|--------------------------------------------------------------------------------------|
G#|--------------------------------------------------------------------------------------|
D#|--------------------------------------------------------------------------------------|
  |
  | 
D#|--------------------------------------------------------------------------------------|
A#|--------------------------------------------------------------------------------------|
F#|--------------------------------------------------------------------------------------|
C#|--------------------------------------------------------------------------------------|
G#|--2-------------2------2-------------4------2-------------2------5------4------2------|
D#|--0--------------------3-------------4------0-------------0---------------------------|


    E5             E6                  E5              E7            B5
                                                                     |-3-|
D#|-(10)r-10-7-9p7----7----------------7-------------7---------------------|
A#|----------------10---10b12====(10)r---10-7------7---10p7------7---------|
F#|-------------------------------------------9b11----------9b11-----9p7---|
C#|----------------------------------------------------------------------9-|
G#|------------------------------------------------------------------------|
D#|------------------------------------------------------------------------|
  |
  | 
D#|------------------------------------------------------------------------|
A#|------------------------------------------------------------------------|
F#|------------------------------------------------------------------------|
C#|------------------------------------------------------------------------|
G#|---2-------------2----------4-------2-----------2----5---4------7s9-----|
D#|---0--------0----3----------4-------0----------------0----------5s7-----|


          B6                    B5           B6
      ~
           |--3---|                                |--3--|  |3|
D#|-----------------7----7--9p7---10b12-10-7------7-10b12-10--7---|
A#|-9-------------7---10-7------7------------7-10-7-------------7-|
F#|-9---7----9b11-------------------------------------------------|
C#|---9-----------------------------------------------------------|
G#|---------------------------------------------------------------|
D#|---------------------------------------------------------------|
  |
  |
D#|---------------------------------------------------------------|
A#|---------------------------------------------------------------|
F#|---------------------------------------------------------------|
C#|---------------------------------------------------------------|
G#|-9-----9-11-------------11------9-------9---11------------11---|
D#|-7-----7--7---------------------7------------7-------------7---|


  B5                 B6                 B5         B6
   |--3--| |3|        |-3-|
D#|-10b12-10-7---10b12-10-7--------------------14-14-14-14----|
A#|------------7------------7-------15s17-(17)-------------14-|
F#|-----------------------------------------------------------|
C#|-----------------------------------------------------------|
G#|-----------------------------------------------------------|
D#|-----------------------------------------------------------|
  |
  |
D#|-----------------------------------------------------------|
A#|-----------------------------------------------------------|
F#|-----------------------------------------------------------|
C#|---------------------------------------------------------0-|
G#|--9------------9----11--------11---------9------9-11-----0-|
D#|--7------------7-----7---------7---------7------7----------|


           F#5          F#6                      F#5               F#6       F#5
D#|-17b19==(17)r(17)-14-14h17p14----17p14--------------------------------------------------|
A#|------------------------------17-------17b19==(17)r-17-15-17p15----15b16==(15)-(15)r\---|
F#|----------------------------------------------------------------16----------------------|
C#|----------------------------------------------------------------------------------------|
G#|----------------------------------------------------------------------------------------|
D#|----------------------------------------------------------------------------------------|
  |
  |
D#|----------------------------------------------------------------------------------------|
A#|----------------------------------------------------------------------------------------|
F#|----------------------------------------------------------------------------------------|
C#|----------4---------------------------------------------------------------------------0-|
G#|----------4--------4--------------6-------------4-------4--------6----------4---------0-|
D#|----------2--------2--2-----------2-------------2----------------4----------2-----------|


    E5              E6            E5             E7 E6G#5
D#|---------7-------10------------14b17-14-14b17-14---14b17-|
A#|-------7---10s12----12p10---12-14b17---------------------|
F#|---6s8--------------------x------------------------------|
C#|---------------------------------------------------------|
G#|---------------------------------------------------------|
D#|---------------------------------------------------------|
  |
  |
D#|---------------------------------------------------------|
A#|---------------------------------------------------------|
F#|---------------------------------------------------------|
C#|-----------------------------------------2---------------|
G#|---------------2--2----------4--2--------2-----5-4--6----|
D#|-0-------------0--3----------4--0----------------0--4----|


    B5               B6            B5        B6
     ~~                                 ~~
D#|-14-12-14------------------7-14s19----------------7-----7---|
A#|------------15b16--------7----------------------7---10--7---|
F#|---------------------6s8-------------7-----9b11-----------7-|
C#|------------------------------------------------------------|
G#|------------------------------------------------------------|
D#|------------------------------------------------------------|
  |
  |
D#|------------------------------------------------------------|
A#|------------------------------------------------------------|
F#|------------------------------------------------------------|
C#|------------------------------------------------------------|
G#|--9-------9-------11-------9-----9------9-11-----------11---|
D#|--7-------7--------7-------------7---------7----------------|


    B5        B6             F#7         A#5
D#|----------------7------------------------||
A#|--------------7h9-7----------------------||
F#|--------------------7---------9-9---9-9--||
C#|-9--------------------9------------------||
G#|---9-(9)----------------9-(9)-----x------||
D#|-----------------------------------------||
  |
  | 
D#|-----------------------------------------||
A#|-----------------------------------------||
F#|---------------------------9----9-9------||
C#|----------------------0----8----8-8------||
G#|-9-------9-11---9-----0----9----9-9-9-8--||
D#|-7-------7--7-------------------------6--||


[Verse]
  BsusB5B6     B7       B6          B5        E5    E6     E5     E7   F#5
                         |---3---|
D#|-----------------------------------------|-7s9s7------------------------|
A#|---------------------x-(7)s(9)--9s==7----|------------------------------|
F#|---------------------x-------------------|-7s9s7-7-(7)----(7)-----------|
C#|---------------------x--7s==9--(9)s(7)---|------------------------------|
G#|-----------------------------------------|------------------------------|
D#|-----------------------------------------|------------------------------|
  |
  | 
D#|-----------------------------------------|------------------------------|
A#|-----------------------------------------|------------------------------|
F#|-9---------------------------------------|------------------------------|
C#|---------------------------------------0-|------------------------------|
G#|-9---9-11--11-12--12---11-----------9--0-|-------2--2---4--2---2-5--4-4-|
D#|-7---7--7---7--7---7----7-----------7----|---0---0--3---4--0---0-0----2-|


    B5          B6            B5     B6  B5
                            ~~~~~~
                          |3|
D#|-7------------------------------------(0)-|
A#|-7h9-7------------------------------------|
F#|-------9-7h8------------------------------|
C#|--------------9-7-------------------------|
G#|------------------9-8--7-5-(5)------------|
D#|------------------------------------------|
  |
  |
D#|------------------------------------------|
A#|------------------------------------------|
F#|------------------------------------------|
C#|------------------------------------------|
G#|-9-------9---11-------11----9---9-11---9--|
D#|-7-------7----7--------7----7---7--7---7--|


                    B6         B5    B6  B5
                               ~~~~~~~~~~
D#|--------7---------------------------------|
A#|------7---10p7----------------------------|
F#|-9b11----------7-(7)----------------------|
C#|---------------------9p7----7-----(7)-----|
G#|--------------------------9---------------|
D#|------------------------------------------|
  |
  |
D#|------------------------------------------|
A#|------------------------------------------|
F#|------------------------------------------|
C#|----------------------------------------0-|
G#|-9-------------9-11------11-9-----11--9-0-|
D#|-7-------------7--7-------7-7---7--7--7---|


    E5    E6     E5     E7  E6      E5   E6    E5    E7  G#5
                      ~~~~~~
D#|-------------------------------|----------------------0--|
A#|-------------------------------|-------------------------|
F#|-----------------9s7-(7)-------|-------------------------|
C#|-------------------------------|-------------------------|
G#|------------9s11-----------11\-|-------------------------|
D#|-------------------------------|-0-----------------------|
  |
  |
D#|-------------------------------|-------------------------|
A#|-------------------------------|-------------------------|
F#|-------------------------------|-------------------------|
C#|-2-----------------------------|----2-------2------------|
G#|-2---2-2--4----2---2--5--4--2--|-2--2-2---4-2---2-5-4-6/-|
D#|-----0-3--4----0---0--0--0-----|-0----3---4-----0-0---4/-|


    B5      B6      B5     B6
     TP TP   TP      TP
D#|----11---11------11------------|
A#|-10-10---10------10------------|
F#|-11-11---11------11------------|
C#|-------------------------------|
G#|-------------------------------|
D#|-------------------------------|
  |
  | 
D#|-------------------------------|
A#|-------------------------------|
F#|-------------------------------|
C#|-------------------------------|
G#|--9----9-11---11--9---9-11--11-|
D#|--7----7--7----7--7---7--7---7-|


  B5        B6              B5          B6     B5
        TP
                                         |-3-|  |-3-|
D#|------11---11-------------------------------7-------------------|
A#|------10---10---------10---10\------------7---10p7--------------|
F#|-11p9-11---11-11s9s11-11s9-11\-9p7---7h=8----------9b11r(9)p7---|
C#|-----------------------------------9--------------------------9-|
G#|----------------------------------------------------------------|
D#|----------------------------------------------------------------|
  |
  | 
D#|----------------------------------------------------------------|
A#|----------------------------------------------------------------|
F#|----------------------------------------------------------------|
C#|---------------------------------------------------------0------|
G#|--9------9-11---------11----9------9---11------9---------0------|
D#|--7------7--7----------7----7------7----7------7----------------|


    F#5   F#6  F#5    F#6 F#5 E5
D#|-------------------------|--------------------|
A#|-------------------------|--------------------|
F#|-------------------9-9-9-|--------------------|
C#|-------------------8-8-8-|-9-(9)--------------|
G#|-9----------(9)----9-----|-7-(7)--------------|
D#|-------------------------|--------------------|
  |
  |
D#|-------------------------|--------------------|
A#|-------------------------|--------------------|
F#|-------------------------|--------------------|
C#|-------------------------|--------------------|
G#|-4---4-6--6--4---4-6---4-|-2------------------|
D#|-2---2-2-----2---2-2---2-|-0------------------|


    B5      B/D#  E         E#dim7        B/F#     C7 B13
D#|---------7-9-7----7-9b11-7h9p7-----7-|-9b12------------------7--7---------|
A#|-7-------------9---------------9-----|---------------------7h9----7-------|
F#|-9b11--------------------------------|----------9--8-(8)------------9-7h8-|
C#|-------------------------------------|----------8--7-(7)------------------|
G#|-------------------------------------|------------------------------------|
D#|-------------------------------------|--------0---------------------------|
  |
  |
D#|-------------------------------------|------------------------------------|
A#|-------------------------------------|------------------------------------|
F#|-------------------------------------|------------------------------------|
C#|-------------------------------------|-9----------------------------------|
G#|-9-------6---6-7----7----8-------8h9-|-9--------8--9-(9)------------------|
D#|-7-----7-----------------------------|----------6--7-(7)------------------|


                        ~~~~~~~~~~~~~~
                                                 |-3-|
D#|-----------------------------|----------------x-----------|
A#|-----------------------------|------------------x---------|
F#|-(8)-------------------------|--------------------x-------|
C#|-----9p7---7-----------------|----------------------------|
G#|---------9---9p7s5--(5)------|-(5)-(5)--(5)---------------|
D#|-----------------------------|----------------------------|
  |
  | 
D#|-----------------------------|----------------------------|
A#|-----------------------------|----------------------------|
F#|-----------------------------|----------------------------|
C#|-----------------------------|----------------------------|
G#|-(9)-------------------------|-(9)------------------------|
D#|-(7)-------------------------|-(7)------------------------|



************************************

| x    Dead note
| (n)  Ghost note
| h    Hammer-on
| p    Pull-off
| >    Accented note
| b    Bend
| pb   Pre-bend
| /    Slide up
| \    Slide down
| s    Slide

************************************
Suggest correction
comments
print report bad tab
29 comments total. Showing first comments.
+4 reply
theoddmenout 2,184 Apr 17, 2005 08:00 PM

Really long! But I wish there was some kind of lyrics or guidance as to where you are in the song...

0 reply
Kartman 210 Jun 10, 2005 08:00 PM

Cool

+2 reply
heart grenade 10 Mar 06, 2006 10:24 AM

Dude don't get so complicated.

guest
You may want to rate the tab now too:
select rating
Wanna post a correction for this tab? Suggest correction