Oops, an error
Loading. Please wait.

Soul Food Bass Tab

version 2
version 2

Whole song

275 views 1 this week
no commentswrite comment
1 2 3 4 5
please rate
add to favorites
launch autoscroll
font size
0
reset
guitar tuner
Tab Pro tools
  • play this tab
  • loop segment
  • change instrument
  • show fretboard
  • metronome
×
Best way to learn
"Soul Food"
Autoscroll
slow
fast
+/-
esc
set tempo
stop
Contributor
JIMI HENDRIX & Curtis Knight - Soul Food
ALBUM: COLLECTION (1993)


VERSE

E ----------------------------------|
A ----------------------------------|
D ----------7--------------9-7------|
G ---7-7-5----5-7-7--7-9-7----------|

VARIATIONS

E ----------------------------------|
A ----------------------------------|
D ----------7--------------9-7------|
G ---7-7-5----5-7-7--7p9p7----------|

BRIDGE

E ------------------------------------------------------------------|
A ------------------------------------------------------------------|
D ---7-7-7-7-7-7-7-7--5-5-5-5-5-5-5-5--7-7-7-7-7-7-7-7--77-55-33-22-|
G ------------------------------------------------------------------|

REPEAT THE VERSE

at 1.23

E --------------------------------------------------|
A ------------------------------------------------0-|
D --7---------7------------7-----------7----7-0-5---|
G ----5--5-5----5--5-5--5----5--5-5--5---5-5--------|

BRIDGE

E ------------------------------------------------------------------|
A ------------------------------------------------------------------|
D ---7-7-7-7-7-7-7-7--5-5-5-5-5-5-5-5--7-7-7-7-7-7-7-7--77-55-33-22-|
G ------------------------------------------------------------------|

REPEAT THE VERSE 'TILL YOUR DEATH!!!

HAAHHAHAHAHAHA JAH WOBBLE IS GOD!
SUPERIPERFANTASTICMEGASPECIAL SONG!!!!!!!!!!!!!!!!!!!!!!!
comments
We did not receive enough feedback on this tab! Please rate:
print report bad tab
1 2 3 4 5
I want to post or [tab]
guest
You may want to rate the tab now too:
select rating
Please do not post tabs as comments. Select "correction" instead!