Oops, an error
Loading. Please wait.

Spanish Castle Magic Bass Tab

version 2
version 2

Whole song

Interactive

10,824 views 39 this week
no commentswrite comment
1 2 3 4 5
excellent!
x 4
add to favorites
launch autoscroll
font size
0
reset
guitar tuner
Tab Pro tools
  • play this tab
  • loop segment
  • change instrument
  • show fretboard
  • metronome
Autoscroll
slow
fast
+/-
esc
set tempo
stop
Contributor
Tabbed by Gregg Fancy
Recorded by Luke Fancy

Intro:
G|---------------|
D|---------------|
A|--6-6----------|
E|---8--8--68-8--|

Main:
G|------------------------------------------|
D|--888-8----777-7--666-6--555-5------------|
A|------------------------------------------|
E|-----------------------------------888-8--|

Chorus:                          PLAY FAST!!!       PLAY FAST!!!
G|----------------------------------------------------------------------
D|--6-6-------------6-6-------------------------------------------------
A|---8--8--68-8--68--8--8--68-8---6-6-6-6-------------6-6-6-6-----------
E|------------------------------68-8-8-8---8--68-8--68-8-8-8---8--68-8--

                                                         PLAY FAST!!!
-------------------------------------------------------------------------------|
-------------------------------------------------------------------------------|
--6-8-10-10-10-10-10-9-8-7-6-6-6-6-6-7-8-9--6-6------------6-6-6-6-------------|
---------------------------------------------8--8--68-8--68-8-8-8---8--68--68--|

Bridge:
  Play 3 Times       Play 9 Times
G|----------------|-----------------------|
D|----------------|--------------------8--|
A|----------------|---------------8h10----|
E|--X/888-8-88-8--|--X/888-8-88-8---------|

The slide during the 9 Times part is optional. It’s easier to play without the slide.

X/ Slide to/from Nowhere
comments
print report bad tab
I want to post or [tab]
guest
You may want to rate the tab now too:
select rating
Please do not post tabs as comments. Select "correction" instead!