Oops, an error
Loading. Please wait.

Spanish Castle Magic tab

version 3
version 3

Whole song

Interactive

82,742 views 63 this week
57 commentsread comments
1 2 3 4 5
x 48
add to favorites
×
Save as Personal and add changes to this tab that will be seen only by you. Learn more ›
×
You can save this tab as Personal to edit and correct it or add notes. All changes will be seen only by you. Learn more »
launch autoscroll
font size
0
reset
how to read this tab
guitar tuner
backing track
0:00
0:00
edit
Autoscroll
slow
fast
+/-
esc
set tempo
stop
Author
Difficulty
intermediate
[Intro]
e|-------------------------------------------------------------------|
B|---8-8---8-8----8-8----8-------------------------------------------|
G|---8-8---8-8----8-8----8-------------------------------------------|
D|---8-8---8-8----8-8----8-------------------------------------------|
A|-10----10-----10-----10--------------------------------------------|
E|--------------------------11/--------------------------------------|

[Main riff]
e|-------------------------------------------------------------------|
B|-------------8*----------------------------------------------------|
G|-------------8-----------------------------------------------------|
D|--8----------8----------four times---------------------------------|
A|--6----6-----------------------------------------------------------|
E|---6-8---8-8-------------------------------------------------------|

[Verse]
e|-------------------------------------------------------------------|
B|-------------------------------------------------------------------|
G|-------------------------------------------------------------------|
D|-888-8----777-7----------------000-0----888-8----------------------|
A|-888-8----777-7-666-6-555-5----000-0----888-8----777-7-666-6-555-5-|
E|-666-6----555-5-444-4-333-3----888-8----666-6----555-5-444-4-333-3-|

e|-------------------------------------------------------------------|
B|-------------------------------------------------------------------|
G|-------------------------------------------------------------------|
D|-------------------------------------------------------------------|
A|-000-0-------------------------------------------------------------|
E|-888-8--666--------------------------------------------------------|

(Between the power chords, hit the quarter notes on the strings
Also, the 0's mean 10 but they fit better)

[Chorus]
e|--------------------------------------------------------------------|
B|------------13----------------------8-------------------------------|
G|------------13----------------------8-------------------------------|
D|------------13---repeat-------------8------repeat-------------------|
A|-11--11-------------------6----6------------------------------------|
E|---13--13-13---------------6-8---8-8--------------------------------|

e|-------------------------------------------------------------------|
B|-------------------------------------------------------------------|
G|-------------------------*14-14-14-13-12---------------------------|
D|-----------------------------------------play main riff twice------|
A|-8/10-10-10-10-9-8-------------------------------------------------|
E|-------------------11----------------------------------------------|

[Chorus 2]
e|-------------------------------------------------------------------|
B|---------------------------------------------8---------------------|
G|---------------------------------------------8---------------------|
D|---------------------------------------------8-repeat--------------|
A|-11---11--------11---11------13b14--6----6-------------------------|
E|---13---13-*13----13---13-13---------6-8--8-8----------------------|

(*hold note with vibrato)

e|-------------------------------------------------------------------|
B|-------------------------------------------------------------------|
G|-------------------------13-14-15-15-15-15-15/---------------------|
D|-------------------------------------------------------------------|
A|--8/10-10-10-10-10-9-8---------------------------------------------|
E|-----------------------11------------------------------------------|

[Solo]
e|-------------------------------------------------------------------|
B|-------------------------------------------------------------------|
G|---------------------------------------------2-1------3------------|
D|-8/10---10/13/10--8/10-8--5h6-3h5-------3h4h5---33-1-3-------------|
A|---------------------------------3-3-3h6---------------------------|
E|-------------------------------------------------------------------|

e|--------------------6-8b-6---8-8b--8-6-8-6-8-6---------------------|
B|-----------------8-8-------8-------------------6/8-6/8-------------|
G|----------3/5-3----------------------------------------------------|
D|----3-4-5----------------------------------------------------------|
A|-3-6---------------------------------------------------------------|
E|-------------------------------------------------------------------|

e|-8-6-8-8-----8-11p10p8-8-11p10p8-8b--8p6--------------8-----6-8----|
B|------------8---------8-----------------8--6-7b-6---6-8-6-8--------|
G|------------------------------------------8------8-----------------|
D|-------------------------------------------------------------------|
A|-------------------------------------------------------------------|
E|-------------------------------------------------------------------|

e|-8-11-8-11-8-11-8-11-8-11*-11/15-11--11-13-13h14-13-11---------11--|
B|-----------------------------------13-----------------14-----13----|
G|-----------------------------------------------------------12------|
D|-------------------------------------------------------------------|
A|-------------------------------------------------------------------|
E|-------------------------------------------------------------------|
*i cant tell how many times he does this for sure

e|-11/15-14/11---14/15-14/15-14/15-14/15-14/15-14/15p11------18-18-18-|
B|------------13---------------------------------------13-13----17-17-|
G|--------------------------------------------------------------------|
D|--------------------------------------------------------------------|
A|--------------------------------------------------------------------|
E|--------------------------------------------------------------------|

[Chorus]
e|-------------------------------------------------------------------|
B|-------------------------------------------------------------------|
G|-----------------8-------------------------------------------------|
D|--------8-8/10-10-10---------8/9-9---------------------------------|
A|-11---11-------------11---11-------6--6------6---6--6------6-------|
E|---13------------------13-----------8--8-8--8-8---8--8-8--8-8------|

e|-------------------------------------------------------------------|
B|-------------------------------------------------------------------|
G|-------------------------------------------------------------------|
D|---------------------------------now play main rff 4x--------------|
A|--8/10-10-10p9p8---------------------------------------------------|
E|-----------------11-8-6-3-2-1--------------------------------------|


************************************

| /  Slide up
| *  Natural harmonic
| b  Bend
| h  Hammer-on
| p  Pull-off
| x  Dead note

************************************
Suggest correction
Creating personal tab
Creating personal tab
You can edit any tab online and save it as your Personal.

You can edit, replace or remove any tab part or add personal notes – all changes will be seen only by you.

Personal tabs can be accessed anytime from any device, even offline.
Learn more »
comments
print report bad tab
57 comments total. Showing first comments.
0 reply
BrendanCarrRR 62 Apr 01, 2006 07:35 AM

OH MY GOODNESS THIS TAB IS AMAZING MORE PEOPLE SHOULD LOOK AT THIS TAB AND GIVE IT 5 STARS CAUSE ITS THE GREATEST TAB EVER

-1 reply
Mcassidy42 61 Jun 08, 2006 03:12 AM

It's Okay, the 4th version is better though

0 reply
BrendanCarrRR 62 Jul 07, 2006 07:34 PM

lol yeah i got into this song after guitar hero. thats why i tabbed it.

guest
You may want to rate the tab now too:
select rating
Wanna post a correction for this tab? Suggest correction