Oops, an error
Loading. Please wait.

Sunshine Of Your Love tab

version 1
version 1

Whole song

Interactive

32,229 views 33 this week
16 commentsread comments
1 2 3 4 5
x 25
add to favorites
×
Save as Personal and add changes to this tab that will be seen only by you. Learn more ›
×
You can save this tab as Personal to edit and correct it or add notes. All changes will be seen only by you. Learn more »
launch autoscroll
font size
0
reset
how to read this tab
guitar tuner
edit
Autoscroll
slow
fast
+/-
esc
set tempo
stop
Difficulty
        1
e------------------      <----repeat--| x8
b-------------------------------------|
g-------------------------------------|
d--------------3b---------------------|
a5-5-3-5------5--5~-------------------|
E--------5-4-3------------------------|
        2
e----------------------------------------------|
b----------------------------------------------|
g--------------3b------------------------------|
d-5-3-5-------5--5~             <------repeat--| x4
a--------5-4-3---------------------------------|
E----------------------------------------------|

now repeat 1 4 more times

       3
e---------------------------------------|
b---------------------------------------|
g---------------------------------------|
d---------------------------------------|
a---------------------------------------|
E-5-5-5-8-3-------------        repeat--| x4
Suggest correction
Creating personal tab
Creating personal tab
You can edit any tab online and save it as your Personal.

You can edit, replace or remove any tab part or add personal notes – all changes will be seen only by you.

Personal tabs can be accessed anytime from any device, even offline.
Learn more »
comments
print report bad tab
16 comments total. Showing first comments.
+4 reply
stef123 30 Feb 28, 2008 07:14 AM

Jimi did this in some of his live performances as a tribute to cream.

http://www.youtube.com/watch?v=s2TSpusRV-8

0 reply
lordsod 10 Mar 11, 2008 09:14 AM

nevermind who did it the tabs shit. in the wrong place, hence wrong sound.

+1 reply
willwelsh816 306 Apr 25, 2008 09:04 AM

In the Jimmi Recording, The the little |--5--4--3--|
was in a Higher pitch than the main section of the riff:

|--5--5--3--5--|

guest
Wanna post a correction for this tab? Suggest correction