Oops, an error
Loading. Please wait.

The Star-Spangled Banner tab

version 2
version 2
206,449 views 321 this week
51 commentsread comments
1 2 3 4 5
x 116
add to favorites
×
Save as Personal and add changes to this tab that will be seen only by you. Learn more ›
×
You can save this tab as Personal to edit and correct it or add notes. All changes will be seen only by you. Learn more »
launch autoscroll
font size
0
reset
how to read this tab
guitar tuner
edit
Autoscroll
slow
fast
+/-
esc
set tempo
stop
Author
Tablatura di E. Talotti
Jimi Hendrix - Woodstock 1968 - Star Spangled Banner

                    sl                         hp  sl
e|-------------0-|-2/4-2--0--------|-----4--2-0-2-0----|-----0-0------|
B|-0--------0----|-----------------|----------------2/4|-2-4-----0----|
G|---1----1------|-----------1-3-4~|-4-4---------------|-----------1--|
D|-----2---------|-----------------|-------------------|-------------2|
A|---------------|-----------------|-------------------|--------------|
E|---------------|-----------------|-------------------|--------------|
                 sl   trl      trl                             trl trl

e|-----------0-|-2/4-2-4-2-4-2-4-2-4--0-2-0-2-0-2-0-2-0-|-------------|------------------|
B|--0-------0--|----------------------------------------|-------------|------------------|
G|---1---1-----|----------------------------------------|-1-1/3\1/3/4-|-6-6-8^-6868-4646-|
D|-----2-------|----------------------------------------|-------------|------------------|
A|-------------|----------------------------------------|-------------|------------------|
E|-------------|----------------------------------------|-------------|------------------|
    
             hp sl 
e|-------------------|-----0-0-------|
B|-0-0-7^~-7-5-7-5\4-|-2-4-----0-----|
G|-------------------|-----------1---|
D|-------------------|-------------2-|
A|-------------------|---------------|
E|-------------------|---------------|

                                               hpp 
e|---------------12^|-5-4-2-4-5-5---------|-5-4--2-4-2-0--0----|
B|-9-9-9-10-12-12---|---------------------|---------------4^-4~|
G|------------------|------------3---3---2|--------------------|
D|------------------|--------------2---2--|--------------------|
A|------------------|---------------------|--------------------|
E|------------------|---------------------|--------------------|


e|--------------16|-----16------16-----16~|-----0-0-0|
B|-------17---17--|---17------17-----17~--|-0-0-----4|
G|-16-16----16----|-16------16-----16~----|----------|
D|----------------|-----------------------|----------|
A|----------------|-----------------------|----------|
E|----------------|-----------------------|----------|

   turbo-picking
e|--------------------------------------------2-2-2-2-2-2-2-2--4-4-4-4-4-4-4-4--5-5-5-4-5--4-4-4|
B|-2-2-2-2-2-2-2-2--4-4-4-4-4-4-4-4--5-5-5-5----------------------------------------------------|
G|----------------------------------------------------------------------------------------------|
D|----------------------------------------------------------------------------------------------|
A|----------------------------------------------------------------------------------------------|
E|----------------------------------------------------------------------------------------------|

    hpp               sl  sl                  p       SL
e|-2-4-2-0~-----|--------------7\/-|-0-2-4-4-5-4\2~0~|-4-4/9/11-|
B|--------4^~-4~|-0-0-5-5/7-7/9----|-----------------|-4-4/9/11-|
G|--------------|------------------|-----------------|-5-5/10/12|
D|--------------|------------------|-----------------|-6-6/11/13|
A|--------------|------------------|-----------------|----------|
E|--------------|------------------|-----------------|----------|


e|-0~-------|
B|-0~-------|
G|----------|
D|----------|
A|----------|
E|----------|


************************************

| /  Slide up
| \  Slide down
| ~  Vibrato

************************************
Suggest correction
Creating personal tab
Creating personal tab
You can edit any tab online and save it as your Personal.

You can edit, replace or remove any tab part or add personal notes – all changes will be seen only by you.

Personal tabs can be accessed anytime from any device, even offline.
Learn more »
comments
print report bad tab
51 comments total. Showing first comments.
0 reply
jeb182 10 Feb 17, 2002 07:00 PM

amazing

0 reply
dracula_6969 10 Feb 18, 2002 07:00 PM

good job

0 reply
crybaby95 10 Feb 26, 2002 07:00 PM

damn-this is real hendrix like i wanted!!!!-good job

guest
You may want to rate the tab now too:
select rating
Wanna post a correction for this tab? Suggest correction