Oops, an error
Loading. Please wait.

The Wind Cries Mary Tab

version 1
version 1
599,358 views 927 this week
45 commentsread comments
1 2 3 4 5
excellent!
x 187
add to favorites
launch autoscroll
font size
0
reset
how to read this tab
guitar tuner
Tab Pro tools
  • play this tab
  • loop segment
  • change instrument
  • show fretboard
  • metronome
×
Best way to learn
"The Wind Cries Mary"
Autoscroll
slow
fast
+/-
esc
set tempo
stop
Contributor
Artist:The Jimi Hendrix Experience 
Song:The Wind Cries Mary
Words and music by: Jimi Hendrix
On the album: Are You Experienced?
Tabbed by: Ørjan- orjano59@hotmail.com

Standard Tuning
Tempo: 80 (Moderatly Slow Rock)


[Intro]

  Eb5 E5 F5    Eb/G  E/G#  F/A       Eb5 E5 F5    Eb/G  E/G#   F/A
e|-----------|---------------------|-----------|-----------------------------------------|
B|-----------|---------------------|-----------|-----------------------------------------|
G|-8--9-10---|----8----9------10---|-8--9-10---|----8----9------10-----------------------|
D|-8--9-10---|----8----9------10---|-8--9-10---|----8----9------10----------10-12-10-----|
A|-6--7--8---|-8h10--9h11--10h12---|-6--7--8---|-8h10--9h11--10h12----10h12----------12\-|
E|-6--7--8---|---------------------|-6--7--8---|--------------------13-------------------|


[Verse]

   C(add9)      Bb            F                          C          Bb/D
e|--------------------6-----|--------------------------|--------------------------------|
B|-------8------------6-----|--------------1-----1-----|-----5--------------------------|
G|-------9------------7-----|-2-0h2------0h2p0-0h2-----|-----5-------------3------------|
D|------10------------8-----|-3---3----3---3-----3-----|-----5--------3--3---3h5--3-----|
A|--------------------------|--------------------------|-3------3---3h5-----------------|
E|-8------------6-----------|--------1-----------------|--------------------------------|
   T            T                    T

   F                           C          Bb             F
e|------------------1---1----|-------------------------|--------------------------------|
B|----------------1h3--1-----|----1--------------x-----|---------1--------------1-------|
G|------0--------------------|-0-----0--------3--x-----|---------2--------------2---2---|
D|------3--------------------|-2-----2--------3--x-----|------3--3------------3-3---3---|
A|-------------3-------------|-3-------2--1------------|--------------3-----------------|
E|-1--------1----------------|-------------------------|-1----------1--1---1------1-----|
   T                                                     T

   Footprints      dressed in   red.                And the  wind           whispers 
   G               Bb                Eb5 E5 F5              G               Bb
e|---------------------------------|----------------------|-------------------------------|
B|-----3-3-5p3---3---6-6-6-8-6-x-x-|----------------------|-3--3-3-5-3--------6---6-8p6-6-|
G|-4-4-4-4-4-----4---7-7-7-7-7-x-x-|-8--9-10--------------|-4--4-4-4-4---4-/7-----7-7---7-|
D|-5-5-5-5-5---5-----8-8-8-8-8-x-x-|-8--9-10--------------|-5--5-5-5-5-5---/8-----8-8---8-|
A|---------------------------------|-6--7--8--------------|-------------------------------|
E|----------------/6---------------|-6--7--8--------------|-3--------------/6---6---------|
                   T                                        T               T

                                   Mary........                                                         
   Eb5 E5 F5                  Eb/G  E/G#  F/A
e|--------------------------|-------------------------------------------|
B|--------------------------|-------------------------------------------|
G|-8--9-10------x-----------|----8-----9-----10------------------10-----|
D|-8--9-10------x-----------|----8-----9-----10---10----10-10-12-10-----|
A|-6--7--8------x-----------|-8h10--9h11--10h12------10h12----------12\-|
E|-6--7--8------------------|-------------------------------------------|


[Verse]

   C              Bb/D
e|-------------------------------|
B|--------5----------------------|
G|--------5-----5--------3-3-----|
D|--------5-------3(3)-----3-----|
A|-3--------------3h5---------5--|
E|-------------------------------|

   F                                C           Bb/D             F
e|---------------------1----------|----------------------------|------------------------------|
B|------1--------1-----1----------|------5---------------------|----------1------1---1--------|
G|----0h2p0----0h2p0-0h2----------|------5----5-------3---3----|----2-2-0h2----0h2-0h2--------|
D|------3-----3--3----------------|----5----5---3(3)--3-3----3-|----3-3---3------3---3--------|
A|------------3-------------------|-3-------3---3h5--------3h5-|--------------3---------------|
E|-1--------1-----------------3/--|----------------------------|-1----------1-------------1/--|
   T                                                             T

   C  Cb(add9) Bb(add9)          F                           G                 Bb
e|------9--------8-------------|---------------------------|-----------------------------------|
B|-8----7--------6-----6-6-----|----1---1------------------|/3--3-3-3-3-5p3--3--------6-8p6--6-|
G|-9----8--------7-----7-7-----|-2--2---2--------2-2-2---2-|/4--4-4-4-4-4(4)-4--------7-7(7)-7-|
D|10----9--------8-----8-8-----|-3------3--------3-3-3---3-|/5--5-5-5-5-5(5)-5-/8-8-8-8-8(8)-8-|
A|-----------------------------|-3---------3-3-3---3---3---|-----------------------------------|
E|-8---------------------------|-1----1------1-1---1---1---|/3-------------3---/6-6-6----------|
   T                             T                           T                  T

  Eb5 E5 F5                    G          Bb               Eb5 E5 F5     Eb/G  E/G#  F/A 
e|---------------------------|----------------------------|------------|--------------------|
B|---------------------------|--------3--------6-8p6------|------------|--------------------|
G|-8--9-10-------------------|--------4---/7-7---7(7)-----|-8--9-10----|----8-----9-----10--|
D|-8--9-10-------------------|-5------5---/8-8---8(8)-8-x-|-8--9-10----|----8-----9-----10--|
A|-6--7--8-------------------|----------------------------|-6--7--8----|-8h10--9h11--10h12--|
E|-6--7--8-------------------|-3---4----3-/6--------------|-6--7--8----|--------------------|
                               T           T

[Solo]

 Lead guitar
   F/A                         Eb/G          N.C.(Bb)     (Ab)
e|-----------13\----------------8--8-----8-|----8-8-----------------------------|
B|--------13h15\----------------8-10-8---8-|-8h10p8-----------------------------|
G|------------------------------------10---|--------10----10-12-10h12~~-(12)p10-|
D|-----------------------------------------|----------/12-----------------------|
A|-----------------------------------------|------------------------------------|
E|-----------------------------------------|------------------------------------|
 |
 |Rhytm guitar
e|-----------------------------------------|------------------------------------|
B|-----------------------------------------|------------------------------------|
G|/10-10-10--10-10-------10\8---8----------|------------------------------------|
D|/10-----------------10-10\8---8-----x--8-|------------------------------------|
A|/12--------------12----12\10-10-----x-10-|------------8------------------8----|
E|-----------------------------------------|-6--6--8h10------4--4-4---8h10---10-|
                                            p.m.            pm....     
  
   F5                          Eb/G          N.C.(Bb)     (Ab)
e|-----------13\----------------8--8-----8-|------------------------------------|
B|--------13h15\----------------8-10-8---8-|------------------------------------|
G|------------------------------------10---|-----10h12-10~~--10h12----------10--|
D|-----------------------------------------|-/12------------------10h12~~~~-----|
A|-----------------------------------------|------------------------------------|
E|-----------------------------------------|------------------------------------|
 |
 |Rhytm guitar
e|-----------------------------------------|------------------------------------|
B|-----------------------------------------|------------------------------------|
G|---10-10--10-10-10-10---8---8-----8------|------------------------------------|
D|---10-10--10-10-10-10---8---8-----8------|------------------------------------|
A|-8--8--8---8--8--8--8-8h10-10----10-8----|------------8------------------8----|
E|--------------------------------------10\|-6--6--8h10------4--4-4---8h10---10-|
                                            p.m.            pm....  

    F5                          Eb/G          N.C.(Bb)     (Ab)
e|-----------13\----------------8--8-----8-|-------------------------------|
B|--------13h15\----------------8-10-8---8-|-------------------------------|
G|------------------------------------10---|-----10h12---------------------|
D|-----------------------------------------|-/12-------10h12~~~~~~~~~~-----|
A|-----------------------------------------|-------------------------------|
E|-----------------------------------------|-------------------------------|
 |
 |Rhytm guitar
e|-----------------------------------------|-------------------------------|
B|-----------------------------------------|-------------------------------|
G|---10-10--10-10-10-10---8---8-----8------|-------------------------------|
D|---10-10--10-10-10-10---8---8-----8------|-------------------------------|
A|-8--8--8---8--8--8--8-8h10-10----10-8----|-------------8--------------6--|
E|--------------------------------------10\|-6--6---8h10-----4---4/8-------|
                                            p.m.            pm....         

   G                                      Bb
e|----15--15--10-10-10-------10----10\--|----8---6(6)-6(6)-----------------|
B|-15h17------10-12-10----10h12-10h12\--|----6---6h8--6(6)-----------------|     
G|---------------------12---------------|----7---7(7)-7h8---8-8-8p7--------|
D|--------------------------------------|----------------------------------|
A|--------------------------------------|----------------------------------|
E|--------------------------------------|----------------------------------|
 |
 |rhy.gui
e|----------------------5--5------------|----8-6---------------------------|
B|-3---3-5p3--3--3---3--3--3-------x----|----6-6-6------6---6---8---6------|
G|-4---4-4(4)-4--4---4--4--4-------x----|-7--7-7-7------7---7---7---7------|
D|-5---5-5(5)-5--5---5--5--5-------x----|-8--8-8-8------8---8---8---8------|
A|--------------------------------------|----------------------------------|
E|-3----------3--3---3--------3--3------|-6------6------6---6---6-----6--9-|
   T                                      T

   Db                                        F5
e|-----------------------9-----------------|----13--13------------------------|
B|--12fb----11p9-------9-------------------|-13h15--13---13-13-13----13----13-|
G|---------------11fb------11fb-9~~~~~~----|-------------12-14-12----12-14-12-|
D|-----------------------------------------|----------------------15----------|
A|-----------------------------------------|----------------------------------|
E|-----------------------------------------|----------------------------------|
 |
 |rhy.gui
e|-----------------------------------------|----------------------------------|
B|-----------------------------------------|----------------------------------|
G|-----------10---------10--10-10-10-------|-10------------------10-----------|
D|-----------11---------11--11-11-11-------|-10------10-----10---10-----------|
A|-----------------------------------------|-8-----8----8---8----8----8-------|
E|-9-----9---9-----9----9---9--9--9-9--9\--|----------------------------8-----|
   T

  
e|-----------------------------------------|
B|-----------------------------------------|
G|-------10----10--------------------------|
D|-10-12----12-10--------------------------|
A|-----------------13--12~~~~~~------------|
E|------------------------------/15\3h5----|
 |
 |rhy. gui
e|-----------------------------------------|
B|-----------------------------------------|
G|----------------10-10-10-10-10-10-10-10--|
D|-10--10--10-----10-10-10-10-10-10-10-10--|
A|-8---8---8---8--8--8--8--8--8--8--8--8---|
E|-----------------------------------------|


[Verse]

   C           Bb/D
e|------------------------------|
B|------5-----------------------|
G|------5-----------------------|
D|-5----5---5--3-3--3--3-3------|
A|-3----3---3--3h5---------3h5--|
E|------------------------------|
 
   F                              C              Bb/D            F
e|------------------------------|------------------------------|----------------------------|
B|--------1---------------------|------------------------------|-----1-----1---1---1----1---|
G|------0h2---------------------|--------5--5--5-----3---------|-----2-----2-0h2-0h2--2-----|
D|--------3---------------------|--------5--5--5-3-3-----3-----|-----3-----3---3---3------3-|
A|------------3-----------------|-3------3-------3h5-------3h5\|----------------------------|
E|-1------------3h5-3h5----3p1--|------------------------------|-1------1-------------------|
   T                                                             T

   C                 Bb               F                             G              Bb
e|-------8-10--8--------6-6-6-6-----|-----------------------------|--------------------------------|
B|-----8-8--8--8-----6--6-6-6-6-----|-----1--1-------1--1--1----1-|-3---5--3--3--3/6-6-6-6-6-6-6---|
G|-----9----9--9--9--7------7-7-----|-----2--2-------2--2--2----2-|-4---4--4--4--4/7-7-7-7-7-7-7-7-|
D|----10---10-10-10--8--------------|-----3--3-------3--3--3----3-|-5---5--5--5--5/8-8-8-8-8-8-8-8-|
A|----------------------------------|-----------3--3--------------|--------------------------------|
E|/8-----------------6-----------x\-|-1---------1--1----------1---|-3------------------------------|
   T                 T                T                             T


  Eb5 E5 F5                    G          Bb               Eb5 E5 F5     Eb/G  E/G#  F/A 
e|---------------------------|----------------------------|------------|-------------------------|
B|---------------------------|--------3--------6-8p6------|------------|-------------------------|
G|-8--9-10-------------------|--------4---/7-7---7(7)-----|-8--9-10----|----8--------------------|
D|-8--9-10----------x--------|-5------5---/8-8---8(8)-8-x-|-8--9-10----|----8-----9-----10-------|
A|-6--7--8----------x--------|----------------------------|-6--7--8----|-8h10--9h11--10h12--12\--|
E|-6--7--8----------x--------|-3---4----3-/6--------------|-6--7--8----|-----------------------7\|
                               T           T

[Verse]

   C                Bb/D            F                              C             Bb/D
e|--------------------------------|------------------------------|----------------------------|
B|--------------------------------|--------1----------------1----|--------5--5----------------|
G|--------5------5-----3--3-3-----|------0h2-------2-2----0h2----|---5-5--5--5-----3-3--------|
D|--------5---5----3-3-3----3-3-3-|--------3----3--3-3---3--3----|-5-5-5--5--5-----3---3-3-3\-|
A|-3--3---3---3----3h5------5-3h5-|-------------3----------------|-3---3-------3h5-------3h5\-|
E|--------------------------------|-1--1------1--------1-------1-|----------------------------|
                                    T

   F                                    C               Bb           F
e|------------------------------------|----------------------------|--------------------------|
B|-----1----1(1)-1--1----------1------|----------------------------|-----1----1---------1-----|
G|-----2--0h2p0--2--2--------0h2------|----5-------5-------3-------|-----2----2---------2-----|
D|----------3(3)-3--3----3-----3------|------5-5-5------3--3-------|-----3----3---------3-----|
A|---------------3-----------------3--|-3----3---3---2--1--1-------|----------3---------------|
E|-1-------------1----1-----1---------|----------------------------|-1------1---1---1---------|
   T                                                                 T

   G               Bb                Eb5 E5 F5              G               Bb
e|---------------------------------|----------------------|-------------------------------|
B|-3---3-3-5p3---3---6-6-6-8-6-x-x-|----------------------|-3--3-3-5-3--------6---6-8p6-6-|
G|-4-4-4-4-4-----4---7-7-7-7-7-x-x-|-8--9-10--------------|-4--4-4-4-4---4-/7-----7-7---7-|
D|-5-5-5-5-5---5-----8-8-8-8-8-x-x-|-8--9-10-------x------|-5--5-5-5-5-5---/8-----8-8---8-|
A|---------------------------------|-6--7--8-------x------|-------------------------------|
E|-3--------------/6---------------|-6--7--8-------x------|-3--------------/6---6---------|
   T               T                                        T               T

   Eb5 E5 F5                  Eb/G  E/G#  F/A
e|--------------------------|----------------------------|
B|--------------------------|----------------------------|
G|-8--9-10------x-----------|----8-----9-----10---x------|
D|-8--9-10------x-----------|----8-----9-----10---x------|
A|-6--7--8------x-----------|-8h10--9h11--10h12---x------|
E|-6--7--8------------------|----------------------------|


[Outro]

   Eb5 E5  F5                           Eb/G  E/G#  F/A                    Eb5 E5  F5
e|-8/10\\8----------------------------|-----------------------------------|--------------------------|
B|-8/10\\8-10h11--10------------------|-----------------------------------|--------------------------|
G|---------10-----10------------------|-----------------------------------|--------------------------|
D|---------10h12--10------------------|----------------10h12-10-----------|--------------------------|
A|------------------------------------|------------------------12-10-8----|----------------8-10-8----|
E|------------------------------------|--------------------------------10-|-6--7--8---8h10--------10-|
 |
 |rhy.gui
e|------------------------------------|-----------------------------------|--------------------------|
B|------------------------------------|-----------------------------------|--------------------------|
G|-8--9-10----------------------------|----8-----9-----10-----------------|-8--9-10------------------|
D|-8--9-10----------x-----------------|----8-----9-----10-----------------|-8--9-10----------x-------|
A|-6--7--8----------x-----------------|-8h10--9h11--10h12-------12\-------|-6--7--8----------x-------|
E|-6--7--8----------x-----------------|-----------------------------------|-6--7--8----------x-------|

   Eb/G  E/G#  F/A                    Eb5 E5  F5
e|-----------------------8--8-------|-8/10\\8----------------------------|--------------------------|
B|--------------------8h10--8-------|-8/10\\8-10h11--10------------------|--------------------------|
G|-----------------------------10p8-|---------10-----10------------------|--------------------------|
D|----------------------------------|---------10h12--10------------------|--------------------------|
A|-8h10--9h11--10h12----------------|------------------------------------|--------------------------|
E|----------------------------------|------------------------------------|--------------------------|
 |
 |
e|----------------------------------|------------------------------------|--------------------------|
B|----------------------------------|------------------------------------|--------------------------|
G|----8-----9-----10----------------|-8--9-10----------------------------|-x------------------------|
D|----8-----9-----10----------------|-8--9-10----------------------------|-x------------------------|
A|-8h10--9h11--10h12~~~~~~~~~~~*----|-6--7--8----------------------------|-x------------------------|
E|----------------------------------|-6--7--8----------------------------|--------------------------|
* with whammy bar


************************************

| x    Dead note
| (n)  Ghost note
| h    Hammer-on
| p    Pull-off
| /    Slide up
| \    Slide down
| ~    Vibrato

************************************
comments
print report bad tab
45 comments total. Showing first comments. show 1 bad comment
+6 reply
PlatypusMaximus wrote on May 10 2002, 12:00 am

this version smokes the higher rated version..preesh

0 reply
soccaslida wrote on August 30 2004, 12:00 am

i thinks its out of the book, but good job ne wayz[ i think that cuz i have the book and the resemblence is uncanny]

I want to post or [tab]
guest
You may want to rate the tab now too:
select rating
Please do not post tabs as comments. Select "correction" instead!