Oops, an error
Loading. Please wait.

The Wind Cries Mary Bass Tab

version 2
version 2

Whole song

5,727 views 18 this week
no commentswrite comment
1 2 3 4 5
excellent!
x 8
add to favorites
launch autoscroll
font size
0
reset
guitar tuner
Autoscroll
slow
fast
+/-
esc
set tempo
stop
Help us to improve Ultimate-Guitar.com Take our survey!
×
Author
Difficulty
novice
The Wind Cries Mary

intro           
G|-------------|----------|
D|*------------|---------*|
A|*--6--7--8---|--r------*|
E|-------------|----------|

Verse                             (3x)                                 (2x)
G|------------------|-----------------|----------------------|--------------|
D|------------------|-----------------|*---------------------|-------------*|
A|------------5--6--|-8---8-r---88-8--|*-10-10-10-10---------|--6-7-8--r---*|
E|-8--8-7-6---------|-----------------|--------------6-6-6-6-|--------------|

Guitar Solo             
  [F]       [Eb]       [Bb]         [Ab]     
G|--------------------|----------------------------|
D|*-------------------|---------------------------*| [play 3x]
A|*-8-8-8-8--6-6-6-6--|--------8-------------8----*|
E|--------------------|-6-6-/10-10\--4-4--/10-10\--|

  [G]                  [Bb]               [Db]                 [F]
G|--------------------|------------------|--------------------|-------------------|
D|--------------------|------------------|--------------------|*-----------------*|
A|-10-10-10-10-10-10\-|------------------|--------------------|*-8-8-8-8-8-8-8-8-*|
E|--------------------|-6-6-6-6-6-6-6-6\-|-9-9-9-9-9-9-9-9-9\-|-------------------|
Suggest correction
comments
print report bad tab
guest
You may want to rate the tab now too:
select rating
Please do not post tabs as comments. Select "correction" instead!