Oops, an error
Loading. Please wait.

Third Stone From The Sun Bass Tab

version 2
version 2

Whole song

8,593 views 15 this week
1 commentread comment
1 2 3 4 5
accurate
x 7
add to favorites
launch autoscroll
font size
0
reset
guitar tuner
Tab Pro tools
  • play this tab
  • loop segment
  • change instrument
  • show fretboard
  • metronome
×
Best way to learn
"Third Stone From The Sun"
Autoscroll
slow
fast
+/-
esc
set tempo
stop
Contributor
----------------------------------------------------------------------------
              Third Stone from the Sun - Jimi Hendrix
-----------------------------------------------------------------------------

Tabbed By : Gordon Tardaguila
e-mail: Bass_of_Spades@yahoo.com

Tuning: Eb Ab Db Gb

Great acid-rock song reminds me of surfing..
Listen to song for timing
Riff A
Played X4
G|-----2--------2--------2--------2---|
D|---2---2----2---2----2---2----2---2-|
A|-0--------0--------0--------0-------|
E|------------------------------------|

0:17
Riff B
Played X2
G|---------------------------------|
D|-----0h7-----0h7-----0h7-----0h7-|
A|-0h7-----0h7-----0h7-----0h7-----|
E|---------------------------------|

0:25
Riff A X2

0:34
Riff C   X1
G|---------------------------------------------|
D|---------------------------------------------|
A|-3-----------------3---------------------5-6-|
E|---------------------------------------------|

0:42
Riff D X9
G|-------------------------------------|
D|------------------9-9-9-9-9-11-9-----|
A|-7-7-7-7-7-9-7-10----------------10--|
E|-------------------------------------|

1:20
Riff C but a lil different  X1
G|---------------------------------------------|
D|---------------------------------------------|
A|-3-----------------3-----------------3-4-5-6-|
E|---------------------------------------------|

1:29
Riff E X6
G|-----------------------------|
D|-----------------------------|
A|-7-7-7-7---0-1-2--2-44-55-66-|
E|---------4-------------------|

1:54 Riff D X8

2:31
Riff F for a LONG time
G|-----------------------------|
D|-----------------------------|
A|-7----9-7----9-7----9-7----9-|
E|----7------7------7------7---|

That's it!
comments
print report bad tab
1 comment total.
0 reply
LongLiveRock105 wrote on September 17 2015, 09:19 pm

The tabs pretty good,but the song is in standard tuning so just move everything down a fret

I want to post or [tab]
guest
You may want to rate the tab now too:
select rating
Please do not post tabs as comments. Select "correction" instead!