Oops, an error
Loading. Please wait.

Up From The Skies Bass Tab

version 1
version 1

Whole song

Interactive

805 views 1 this week
no commentswrite comment
1 2 3 4 5
3 more votes to show rating
add to favorites
launch autoscroll
font size
0
reset
guitar tuner
Autoscroll
slow
fast
+/-
esc
set tempo
stop
Help us to improve Ultimate-Guitar.com Take our survey!
×
Author
Difficulty
novice
Up From The Skies
        
........i just wanna talk to you....    
G|------------------------|
D|*----------------------*|
A|*-2-2-02-020-----------*|
E|------------2-2-02-020--|

........i just wanna know about....     
G|------------------------|
D|*----------------------*|
A|*-4-4-04-040-----------*|
E|------------4-4-04-040--|
                
........is this true....        
G|------------------------|
D|*----------------------*|
A|*-2-2-02-020-----------*|
E|------------2-2-02-020--|


....i have lived here before....        
G|--------------------|--------------------|
D|*-------------------|-------------------*|
A|*-030-4----030--4---|-030-2----030--2---*|
E|--------------------|--------------------|

....i can dig it....    
G|-------------------|-------------------|
D|-------------------|-------------------|
A|-030-4----030--4---|-050-7----050--7---|
E|-------------------|-------------------|

........so where do i purchase....      
G|------------------------|
D|*----------------------*|
A|*-2-2-02-020-----------*|
E|------------2-2-02-020--|
Suggest correction
Give kudos to tab author, rate the tab!
1 2 3 4 5
comments
print report bad tab
guest
You may want to rate the tab now too:
select rating
Wanna post a correction for this tab? Suggest correction