Oops, an error
Loading. Please wait.

Voodoo Child Slight Return intro tab

version 2
version 2
412 views 15 this week
1 commentread comment
1 2 3 4 5
1 last vote to show rating
add to favorites
×
Save as Personal and add changes to this tab that will be seen only by you. Learn more ›
×
You can save this tab as Personal to edit and correct it or add notes. All changes will be seen only by you. Learn more »
launch autoscroll
font size
0
reset
how to read this tab
guitar tuner
edit
Autoscroll
slow
fast
+/-
esc
set tempo
stop
[Intro]
D#|---------------------------------------------------------------------------|
A#|---------------------------------------------------------------------------|
F#|--/9----7-----7--------------------9--7----9\7-----------------------------|
C#|-----------9-------5--5--7p5------------9----------------------------------|
G#|------------------------------7--------------------------------------------|
D#|---------------------------------------------------------------------------|

D#|---------------------------------------------------------------------------|
A#|---------------------------------------------------------------------------|
F#|--/9----7-----7--------------------9------7--9-----------------------------|
C#|-----------9-------5--5--7p5----------9------------------------------------|
G#|------------------------------7--------------------------------------------|
D#|---------------------------------------------------------------------------|

D#|---------------------------------------------------------------------------|
A#|---------------------------------------------------------------------------|
F#|--/9----7-----7--------------------9--7----9\7-----------------------------|
C#|-----------9-------5--5--7p5------------9----------------------------------|
G#|------------------------------7--------------------------------------------|
D#|---------------------------------------------------------------------------|

D#|---------------------------------------------------------------------------|
A#|-----------------------------------------------10b12-10-8------------------|
F#|--/9----7-----7--------------------9--7-----7------------9-----------------|
C#|-----------9-------5--5--7p5-------------9---------------------------------|
G#|------------------------------7--------------------------------------------|
D#|---------------------------------------------------------------------------|



************************************

| /  Slide up
| \  Slide down
| p  Pull-off
| b  Bend

************************************

            
            
Suggest correction
Creating personal tab
Creating personal tab
You can edit any tab online and save it as your Personal.

You can edit, replace or remove any tab part or add personal notes – all changes will be seen only by you.

Personal tabs can be accessed anytime from any device, even offline.
Learn more »
Give kudos to tab author, rate the tab!
1 2 3 4 5
comments
print report bad tab
1 comment total.
0 reply
jamescrossley440 10 May 31, 2017 06:20 PM

AWESOME

guest
You may want to rate the tab now too:
select rating
Wanna post a correction for this tab? Suggest correction