Oops, an error
Loading. Please wait.

Voodoo Child Slight Return tab

version 9
version 9
9,510 views 54 this week
no commentswrite comment
1 2 3 4 5
x 6
add to favorites
×
Save as Personal and add changes to this tab that will be seen only by you. Learn more ›
×
You can save this tab as Personal to edit and correct it or add notes. All changes will be seen only by you. Learn more »
launch autoscroll
font size
0
reset
how to read this tab
guitar tuner
edit
Autoscroll
slow
fast
+/-
esc
set tempo
stop
Jimi Hendrix - Voodoo Child (Slight Retrurn)
Tab by Aldoalain

D#|-----------x-x-------------x------------x-x----------------x-x------------x-x-x-x-|
A#|-----------x-x-------------x------------x-x----------------x-x------------x-x-x-x-|
F#|-----------x-x-x-----------x------------x-x----------------x-----x--------x---x---|
C#|-x-x-x-x-x-----x---x-x----------x-x----------x-x--x-x--x-x-------x-x-x-x----------|
G#|-x-x-x-x-x-----x---x-x--x-------x-x--x-------x-x--x-x--x-x---------x-x-x----------|
D#|---x-x-x-x---------x-x--x---------x--x-------x-x--x-x--x-x---------x---x----------|

D#|---------x---------x-------------------------------------------------------0------|
A#|-x-x-x-x-x-----x---x------x---x---x---x------------------------------------0------|
F#|-x-x-x-x-------x---x------x---x---x---x-9~-x-----7-------------9~-6/7----9~--7----|
C#|-x---x-------x---x------x-x---x-x-x---x------7h9---5b-5b-7-x-x--------9-----------|
G#|-------------x---x------x---x---x---x----------------------x-x--------------------|
D#|-----------------x----------x-------x---------------------------------------------|

D#|----------------------------------------------------------------------------------|
A#|----------------------------------------------------------------------------------|
F#|-x-x-7h9~-0-----7---------------8/9~-0-7-7h9~-----9~-0-----7------------0---------|
C#|-x-x--------7h9----5-5-5h7-----------------------------7h9----5b-5b-5h7-----------|
G#|---------------------------5h7--------------------------------------------0h5h7---|
D#|----------------------------------------------------------------------------------|

D#|-------------0--------------------------------------------------------------------|
A#|-----------------------------------------------------x------10b-10r-8-------------|
F#|-7h9~-7---9~---7--x-x-9~-0-----7--------0h2~------9~-x-7-9~-----------9\----------|
C#|--------9---------x-x------7h9----5b-5b------0h2~---------------------------------|
G#|----------------------------------------------------------------------------------|
D#|----------------------------------------------------------------------------------|

D#|-------------------------------------------------------0--------------------------|
A#|-----------------------------0-------------------------0--------------------------|
F#|------2brp0------------------0-2brp0---------------14b---14br-12~~~---------------|
C#|-2----------0h2-------0h2------------0h2~------------------------------x----------|
G#|-2----------0h2-2----------2---------0h2~------------------------------x----------|
D#|-0-0------------0-0-3------0----------------0-0-0----------------------x-x-15\----|

D#|---0------------------------------------------0--0--0------12----12---------------|
A#|---0--------------------------------0---------0--0--0--15b----15b---12-15p12------|
F#|-----2brp0-------2b~~~~~~~r-2brp0---0---------0--0--0-----------------------------|
C#|-----------0h2--------------------2-----0h2---------------------------------------|
G#|-2---------0h2--------------------2-----------------------------------------------|
D#|-0-------------0------------------0---3-----0-------------------------------------|

D#|----------------------------------------------------------------------------------|
A#|-------------------15-------------------------------------------------------------|
F#|-14brp12----12h14b----14b-14p12-----14b-14-14b-12~~--x----------------------------|
C#|---------14---------------------14-------------------x-------2--2---0h2-----------|
G#|-----------------------------------------------------x-------2--------------------|
D#|-------------------------------------------------------x-12\-0----3---------------|

D#|-----------------------------3-3--------------------------------------------------|
A#|----------------0------------3-3------------------------3-------------------------|
F#|-2---0-2brp0----0---------------------------------------2---2brp0-----------------|
C#|-2---0-------2--------2----------------0h2---------2----2---------2-------2-------|
G#|-2-----------2--------2-------------------------------------------2-------2-------|
D#|---3---------0----3p0-0--0-0-----0-0-3-----0-0-3p0---0-0--0-------0--0-3b-0-------|

D#|--------------------------------------------------------------0-----------0-------|
A#|-----------------------------------------3--------------------0-0---15b~~-0-------|
F#|------------------------------1----------1-----2brp0----------1-1-x---------------|
C#|---------5~-------------------2--2-2-----2----------------------------------2-----|
G#|-----5-7----7---5--7-5--------2--2-2-----------------2--2-2-----------------2--2-2|
D#|-5-7----------7--------7-5-3b-0--0-0-3p0-----0-------0--0-0-3---------------0--0-0|

D#|-----------0-0---------------------------0----------------------------------------|
A#|-----------0-0---------------------------0----------------------------------------|
F#|---------1-1-1-2br-----------------------1-2br-0----------------------------------|
C#|----2----2---------0-2--2--------0h2-------------2--2--------0h2------------------|
G#|----2--2----------------2--2-2-------2-2------------2--2-2------------------------|
D#|-3b-0--0----------------0--0-0-3-----0-0------------0--0-0-3----------------------|

D#|-----5brp3---5~-5---5-3~-------------------------------------------------------0-0|
A#|-3-5-------5------5----------------------3p0-0-3b-0-3p0-3p0--------------------0-0|
F#|-------------------------2br--------------------------------2b-2rp0---------------|
C#|-----------------------------0-2--2---------------------------------2---2~--------|
G#|----------------------------------2--2-2----------------------------2------2-2----|
D#|----------------------------------0--0-0----------------------------0-3----0-0----|

D#|----------------------------0-0-x-------------------------------------------------|
A#|----------------------------0-0-x-------------------------------------------------|
F#|-----4----------------------1-----4-4-4-4-4-4-4-4-4-4-4-4-4-4-4---2-2-2-2-2-2-2-2-|
C#|------------2----------2----------x-x-x-x-x-x-x-x-x-x-x-x-x-x-x-0-x-x-x-x-x-x-x-x-|
G#|-2/5---5\2--2--2-2-----2--2-------5-5-5-5-5-5-5-5-5-5-5-5-5-5-5-0-4-4-4-4-4-4-4-4-|
D#|------------0--0-0-3p0-0--0-------x-x-x-x-x-x-x-x-x-x-x-x-x-x-x---x-x-x-x-x-x-x-x-|

D#|------------------------------0--0------------------------------------------------|
A#|------------------------------0--0-----------3--3--3--3--3--3--3------------------|
F#|-2-2-2-2-2-2-2----------------1--1-2br-0-----1--1--1--1--1--1--1------------3-----|
C#|-x-x-x-x-x-x-x-0-2------------2----------2---2--2--2--2--2--2--2------------x-----|
G#|-4-4-4-4-4-4-4-0-2--2-2-----2-2--------------2--2--2--2--2--2--2--2/3--3-3--3-----|
D#|-x-x-x-x-x-x-x---0--0-0-3p0-0-0------------0--------------------------------------|

D#|---------------------------------------------------------------------0-0-0--0-----|
A#|-----------------------------------------------------------8---8-0-/10-8-8--0-----|
F#|------3----3---3-3-3--3/5-------5--5-5-5-5-5-5-5-5-5-5-----7-0-7-0-------9\-------|
C#|------x--x-x-x-x-x-x--x-x-------x--x-x-x-x-x-x-x-x-x-x-----6-0-6-0------------2---|
G#|-3-3--3--3---3---3-3--3/5--5-5--5--5-5-5-5-5-5-5-5-5-5-----7-0-7--------------2---|
D#|-------------------------------------------------------0-0--------------------0---|

D#|--------------0--0--0-------------------------------------------------------------|
A#|--------------0--0--0--15b~--15r-12-15-15b~~--15r-12-----12h15p12-----------------|
F#|---------1----1--1-----------------------------------14b----------14brp12---------|
C#|---------2----------------------------------------------------------------14------|
G#|-2-2-----2--2---------------------------------------------------------------------|
D#|-0-0-3p0-0--0---------------------------------------------------------------------|

D#|----------------------------------------------------------------------------12-16b|
A#|---------------------------------------------------------------------12-15b-------|
F#|-12h14b~--14br-12~b~-------------9-9------------------9~-x------------------------|
C#|-----------------------------14------12------------------x-------14---------------|
G#|---------------------x-12/14------------12b-12-10----------12/14------------------|
D#|--------------------------------------------------12------------------------------|

D#|-15b-15-12h14p12-----12-----------------------------------------------------------|
A#|-----------------15b----15b~-15b-15rp12-12h15p12h15p12-14p12--12-15-12-14p12----12|
F#|-----------------------------------------------------------------------------14---|
C#|----------------------------------------------------------------------------------|
G#|----------------------------------------------------------------------------------|
D#|----------------------------------------------------------------------------------|

D#|------12-----------------0--------------------------------------------------------|
A#|-15b----15p12------------0--------------------------------------------------------|
F#|-------------14brp12-------2brp0--------------2b-2rp0----------7h9--/7------------|
C#|--------------------14-----------2--2-2---0h2--------------------------9-7--------|
G#|-----------------------2------------------------------2---------------------------|
D#|-----------------------0----------------3---------------0--/12-------------0-0----|

D#|----------------------------------------------------------------------------------|
A#|-----12-15p12-----12-15p12-----12-15p12-----12-15p12-12-15p12-12-----12--12-15p12-|
F#|-14b----------14b----------14b----------14b----------------------14b--------------|
C#|----------------------------------------------------------------------------------|
G#|----------------------------------------------------------------------------------|
D#|----------------------------------------------------------------------------------|

                                                                       x8
D#|--------------------------------------------------------------|-------|-----------|
A#|-12-12-15p12-12-15p12-----15-12-----12-15p12-----15p12-----12-|----15-|-15--------|
F#|----------------------14b-------14b----------14b-------14b----|14b~---|-14b-14rp12|
C#|--------------------------------------------------------------|-------|-----------|
G#|--------------------------------------------------------------|-------|-----------|
D#|--------------------------------------------------------------|-------|-----------|

D#|-15b\---------------------------------------0-0-----------------------------------|
A#|--------------------------------------------0-0-------------------x-x--x-x--------|
F#|-----------------------2br-0---------------------2br-0------------x-x--x-x--------|
C#|----------x---0h2~-----------2----x---0h2--------------2------0h2-----------------|
G#|-------2--x----------x---------2--x----------------------2------------------------|
D#|-------0----3--------x---------0----3--------------------0--3---------------3-----|

                                PALM MUTE
D#|------------------------|-----------------|---------------------------------------|
A#|------------------------|-----------------|---------------------------------------|
F#|---------------2brp0----|-----------------|---------------------------------------|
C#|-0h2p0h2p0---2-------2--|---(2)---(2)--(2)|---0h2p0h2p0-------0h2----(2)---(2)----|
G#|------------------------|-----------------|---------------------------------------|
D#|-----------0------------|(0)---(0)---(0)--|-3-----------0-0-3-----(0)---(0)-------|

D#|-----------------------------------------------------------------/--x-------------|
A#|-----------------------------------------------------------------/--x-------------|
F#|-2brp0---------------------------------------2brp0---------------/(15)------------|
C#|-------0h2p0h2p0---x----0---0h2p0h2p0------x-------2-----------2-------\--x-------|
G#|-----------------------------------------x--------------x-x------------\--x-------|
D#|-----------------x----x---3-----------0--------------0--x-x--3---------\(15)------|

D#|-/--x-----------------------------------------------------------------------------|
A#|-/--x-----------------------------------------------------------------------------|
F#|-/(15)-12----------------------------------------------2br------------------------|
C#|-------12h14----------0h2----------------------------2-----0h2----2~~-----2---2---|
G#|------------------x------------x--------------------------------------------------|
D#|-------------0--x---3-----0--x---3p0-0~~0~-0--0-0-3-0-----------0-----3p0---0---0-|

D#|--------0---------------------------0--0-0-----0-0--------------------------------|
A#|------------------------------------0--0-0-----3-3--------------------------------|
F#|-2brp0--------------------2brp0-----1--1-1-2/4-4-4--4\2p0-------------------------|
C#|-------2-----2---0h2----2-------2-2------------------------------0h2p0h2p0h2p0h2p0|
G#|----------------------------------2-----------------------------------------------|
D#|-----------0---3------0-----------0----------------------0-0-3p0------------------|

D#|----------------------------------------------------------------------------------|
A#|----------------------------------------------------------------------------------|
F#|-----------0-2brp0-----------------------------------2brbrp0----------------------|
C#|---0h2---2---------2------------2-------------------------------------------------|
G#|----------------------------------------------------------------------------------|
D#|-3-----0-------------0--0-0-3p0---0--0-0-3p0-0--0--0---------0--0-0-3b-0--0--0-0--|

D#|----------------------------------------------------------------------------------|
A#|----------------------------------------------------------------------------------|
F#|----------------------------------2br0---------------------------3/4--4-4-4--4-4-4|
C#|-----------------0h2p0h2p0-------------2-2----------0h2----------x-x--x-x-x--x-x-x|
G#|-----2--------------------------------------------------x--x--x--4/5--5-5-5--5-5-5|
D#|-3p0-0--0--0-0-3-----------0--0-0----------0--0-0-3-----0--0--0--x-x--x-x-x--x-x-x|

D#|---------------------------------------0------------------------------------------|
A#|---------------------------------------0------------------------------------------|
F#|-4-4-4--4---2--2-2-2--2-2-2--2--2------1-2brp0------------------------------------|
C#|-x-x-x--x-0-x--x-x-x--x-x-x--x--x--0-2---------2----2--2----------2-2-2-2-2-2-2---|
G#|-5-5-5--5-0-4--4-4-4--4-4-4--4--4--0-2--------------2--2----------2-2-2-2-2-2-2---|
D#|-x-x-x--x---x--x-x-x--x-x-x--x--x----0-----------0--0--0-5/12\-0--0-0-0-0-0-0-0---|

D#|----------------------------------------------------------------------------------|
A#|--------------------------------------------------------------8---8---------------|
F#|----------3--3--3--3--3--3--3/5--5--5--5--5--5--5--5----------7-0-7-0-------------|
C#|----------x--x--x--x--x--x--x-x--x--x--x--x--x--x--x----------6-0-6-0-------------|
G#|-2/3--3-3-3--3--3--3--3--3--3/5--5--5--5--5--5--5--5-5/7------7---7-----------2-2-|
D#|----------x--x--x--x--x--x--x-x--x--x--x--x--x--x--x-x---0--0---------0-0--0--0-0-|

D#|-----------------0-----------------------12---------------------------------------|
A#|-----------------0--15brp12----15b-15b~-----15-12-12h15p12------------------------|
F#|-----------------0----------14-----------------------------14brp12----12-14b~-----|
C#|-------------------------------------------------------------------14-------------|
G#|-2-2-2--2-2-2--2------------------------------------------------------------------|
D#|-0-0-0--0-0-0--0------------------------------------------------------------------|

D#|----------------------12--------12-15-12-15b--15-12-14p12-----12------------------|
A#|------------14----15b----15b-15---------------------------15b----15p12----15p12---|
F#|-14brp12----14---------------------------------------------------------14---------|
C#|---------14----14-----------------------------------------------------------------|
G#|----------------------------------------------------------------------------------|
D#|----------------------------------------------------------------------------------|

D#|----------------------------12------12--------------------------------------------|
A#|----------------------12-15----15b-----15p12-15p12----12--------------------------|
F#|-14brp12----12-14-14b------------------------------14-----14brp12----12-14b-------|
C#|---------14-------------------------------------------------------14--------------|
G#|----------------------------------------------------------------------------------|
D#|----------------------------------------------------------------------------------|

D#|-----12---------------------------------------------------------------------------|
A#|-15-----15-12-----15----------------------12-15b-----12----------14---------------|
F#|--------------14b----14b-14rp12-----12h14---------14----14p12----14--12-----------|
C#|--------------------------------14----------------------------14--------14-12-----|
G#|----------------------------------------------------------------------------------|
D#|----------------------------------------------------------------------------------|

D#|------------------------------------------------------3---0-3-3-3-x-3-0-3---------|
A#|------------------------------3-3-3--0-3-0-3~---0-3-0-3---0-3-3-3-x-3-0-3--x--x---|
F#|------------2brp0-------------x-x-x--0-x-0-x----0-x-0-x---0-x-x-x-x-x-0-x--x--x---|
C#|------------------2-2------2--2-2-2--0-2-0-2~---0-2-0-2-----2-2-2---2---2--x--x---|
G#|-12b-10-----------2-2--2----------------------------------------------------------|
D#|--------12\---------0--0-3---------------------------------------------------x----|

D#|---------------------3-----------------------3-3-3-0-----3---3-3-4/16-16-16-16-16-|
A#|---------3-3-3-0-3-0-3-----------------------3-3-3-0---x-3-x-3-3-3/15-15-15-15-15-|
F#|---------x-x-x-0-x-0-x--2brp0---0----0-------x-x-x-----x-x-x-x-x-4/16-16-16-16-16-|
C#|-2p0---2-2-2-2-0-2-0-2--------2---2--0-------2-2-2---2---2---2-2------------------|
G#|----------------------------------2----2------------------------------------------|
D#|-----3----------------------------0----0-3b---------------------------------------|

D#|-16-16-16-16-16-16-16-16-/16-16-16-16-16-16-16-16-16-16-16-16-16-16-/16-----------|
A#|-15-15-15-15-15-15-15-15-/15-15-15-15-15-15-15-15-15-15-15-15-15-15-/15-15\0------|
F#|-16-16-16-16-16-16-16-16-/16-16-16-16-16-16-16-16-16-16-16-16-16-16-/16-16\0------|
C#|-----------------------------------------------------------------------------2----|
G#|-----------------------------------------------------------------------------2----|
D#|-----------------------------------------------------------------------------0----|

D#|-0-----------x-0----------0----------------------------14-------------------------|
A#|-0---------/12-0----------0-------------------16-17b~-----15-17----15----12-------|
F#|---2brp0-------0------------2brp0---------/15-------------------16----14----12-14-|
C#|---------2---------0h2--2---------2-----------------------------------------------|
G#|------------------------2-----------2-2-2-----------------------------------------|
D#|-----------------3------0-----------0-0-0-----------------------------------------|

D#|----------------------------0----------------------------------3--0---------------|
A#|------15--------------------0----------------------3-3-3--3-3--3--0---------------|
F#|-14b-----14r-12h14-12---------2brp0---------0------x-x-x--x-x--x----2brp0---------|
C#|----------------------14\-2---------2--2-2--0---2--2-2-2--2-2--2----------2-------|
G#|--------------------------2------------2-2--0-------------------------------------|
D#|--------------------------0------------0-0----3-----------------------------------|

D#|-------------3-------------3-3-3--0----3~~------x-x--x---0---0---0----0------0----|
A#|-3-3-3--3-3--3-------------3-3-3--0----3~~------3-3--3---0---0---0---12-----12----|
F#|-x-x-x--x-x--x-(--0---0--)-x-x-x-------x-----/4--------4-7b-------------14b----14b|
C#|-2-2-2--2-2--2-(2---2---2)-2-2-2----2--2~~---------------------9---9--------------|
G#|----------------------------------------------------------------------------------|
D#|----------------------------------------------------------------------------------|

D#|--0------0------0------0------0------0------0------0-----0-0--0-19b---------------|
A#|-12-----12-----12-----12-----12-----12-----12-----12-----0-0--0-------------------|
F#|----14b----14b----14b----14b----14b----14b----14b----14b------------------0-------|
C#|---------------------------------------------------------------------2-2--0---2---|
G#|---------------------------------------------------------------------2-2----------|
D#|---------------------------------------------------------------------0-0----3-----|

D#|---------------------0----0---0-------------0--0-0-0-----------0--0-0-0-0---------|
A#|---------------------0----0---0-------------0--0-0-0-----------0--0-0-0-0---------|
F#|---------2br-0------------------2br-0----------------2br-0----------------2b~~~~~-|
C#|---------------2-2------2---2---------2--2-----------------2-2--------------------|
G#|-2--2--2---------2------2---2------------2-------------------2--------------------|
D#|-0--0--0---------0------0---0------------0-------------------0--------------------|

D#|-----------------------0--------------0-------------------------------------------|
A#|-----------------------0-3v0----------0-------------------------------------------|
F#|-2brp0----0------------0------2br-0---1---------2br-0-----------------------------|
C#|-------2--0-----2-------------------2-2-----x---------2-2-------------------------|
G#|-------------------2-2----------------2--x--x-x---------2-------------------------|
D#|------------3p0----0-0----------------0--x--x-x---------0-------------------------|


************************************

| x    Dead note
| (n)  Ghost note
| h    Hammer-on
| p    Pull-off
| r    Release
| b    Bend
| br   Bend release
| /    Slide up
| \    Slide down
| ~    Vibrato

************************************

            
            
Suggest correction
Creating personal tab
Creating personal tab
You can edit any tab online and save it as your Personal.

You can edit, replace or remove any tab part or add personal notes – all changes will be seen only by you.

Personal tabs can be accessed anytime from any device, even offline.
Learn more »
comments
print report bad tab
guest
You may want to rate the tab now too:
select rating
Wanna post a correction for this tab? Suggest correction