Oops, an error
Loading. Please wait.

Wait Until Tomorrow Bass Tab

version 2
version 2

Whole song

Interactive

385 views 1 this week
1 commentread comment
1 2 3 4 5
2 more votes to show rating
add to favorites
launch autoscroll
font size
0
reset
guitar tuner
Autoscroll
slow
fast
+/-
esc
set tempo
stop
Help us to improve Ultimate-Guitar.com Take our survey!
×
Author
Difficulty
Tuning
novice
D# G# C# F# A# D#
Wait Until Tomorrow - Jimi Hendrix


Intro           (4x)
Gb|-----------------|
Db|*---------------*|
Ab|*--------7-7-r--*|
Eb|-----------------|

Verse                            (4x)
Gb|-----------------|----------------|--------------|
Db|*----------------|---------------*|--------------|
Ab|*--------4r--6-7-|---7r---5r-4---*|--------------|
Eb|--5---5r---------|----------------|-5-r----------|

Chorus                                      (3x)
Gb|--------------------------|--------------------|-------------|
Db|*----14-12h14-12h14-12h14-|---14--------------*|-------------|
Ab|*-------------------------|------12h14-14-14--*|-------------|
Eb|--12----------------------|-12-----------------|-12r---------|

Intro [2x instead of 4x]
Verse
Chorus
Intro
Verse
Chorus [play 4 in a row , fade out]
Suggest correction
Give kudos to tab author, rate the tab!
1 2 3 4 5
comments
print report bad tab
1 comment total.
0 reply
nicodabassman 31 May 27, 2015 05:19 PM

Everything a note higher, if everything were one fret lower it would be perfect

guest
You may want to rate the tab now too:
select rating
Wanna post a correction for this tab? Suggest correction