Oops, an error
Loading. Please wait.

Who Knows Bass Tab

version 3
version 3

Whole song

Interactive

1,453 views 6 this week
no commentswrite comment
1 2 3 4 5
please rate
add to favorites
launch autoscroll
font size
0
reset
guitar tuner
Autoscroll
slow
fast
+/-
esc
set tempo
stop
Help us to improve Ultimate-Guitar.com Take our survey!
×
Author
Well this is how I play it.


||-----------------------0-----------|
||--22-0-2-0-------------------------|
||------------2-1-0--2---------------|
||---------------------3-------------|

and here is a second riff you play somewhere in the song.

||--------------------0--------------|
||--2-0------------------------------|
||-------2-1-0---2-------------------|
||-----------------3-----------------|

This was the first song I could play and this is a pretty good song to start out playing.
When you have a starting blues band (power trio) this might be a good song to practice
because you have to feel (mentally, definitely not physically) each other whenever
the second riff.
Suggest correction
Give kudos to tab author, rate the tab!
1 2 3 4 5
comments
print report bad tab
guest
You may want to rate the tab now too:
select rating
Wanna post a correction for this tab? Suggest correction