Oops, an error
Loading. Please wait.
We have an official Who Knows tab made by UG professional guitarists. Check out the tab »
×
22,379 views 24 this week
3 commentsread comments
1 2 3 4 5
x 4
add to favorites
×
Save as Personal and add changes to this tab that will be seen only by you. Learn more ›
×
You can save this tab as Personal to edit and correct it or add notes. All changes will be seen only by you. Learn more »
launch autoscroll
font size
0
reset
how to read this tab
guitar tuner
backing track
0:00
0:00
edit
Autoscroll
slow
fast
+/-
esc
set tempo
stop
Tune down half a step
(Eb, Ab, Db,Gb,Bb an eb)

[Intro & Verse]
eb|----------------------------------------------|
Bb|----------------------------------------------|
Gb|----------------------------------10b~--------|
Db|---12-12-12-10-12-10--------------10b~--------|
Ab|---------------------12-11-10-----------------|
Eb|------------------------------10--------------|

              (or you could do it like this)
eb|----------------------------------------------|
Bb|----------------------------------------------|
Gb|----------------------------------10b~--------|
Db|---12-12-12-10-12~----------------10b~--------|
Ab|---------------------12-11-10-----------------|
Eb|------------------------------10--------------|

(Later on as the song goes on you play it an octave lower)

eb|----------------------------------------------|
Bb|------------------------10b~------------------|
Gb|------------------------10b~------------------|
Db|----------------------------------------------|
Ab|--5-5-5-3-5-3---------------------------------|
Eb|--------------5~-4~-3~------------------------|


************************************

| b  Bend
| ~  Vibrato

************************************

            
            
Suggest correction
Creating personal tab
Creating personal tab
You can edit any tab online and save it as your Personal.

You can edit, replace or remove any tab part or add personal notes – all changes will be seen only by you.

Personal tabs can be accessed anytime from any device, even offline.
Learn more »
comments
print report bad tab
3 comments total.
0 reply
REV3LATI0N 20 Jul 27, 2009 09:06 PM

no idea what you meant on the solo part. It should just be in Db minor pentatonic

0 reply
youcrazydiamond 10 Sep 09, 2010 03:40 PM

Dude, you got it wrong except for the key. It goes like this...
-----------------------------10--
---------------------------------
-10h12-12-10-12------------------
----------------12-11-10-12-9----

0 reply
Dr. Reefer 10 Jul 18, 2016 03:28 PM

solo is in D minor not A.

guest
Wanna post a correction for this tab? Suggest correction