Oops, an error
Loading. Please wait.

Wild Thing Tab

version 3
version 3

Whole song

Interactive

17,356 views 45 this week
4 commentsread comments
1 2 3 4 5
x 4
add to favorites
×
Save as Personal and add changes to this tab that will be seen only by you. Learn more ›
×
You can save this tab as Personal to edit and correct it or add notes. All changes will be seen only by you. Learn more »
save as personal
new!
launch autoscroll
font size
0
reset
how to read this tab
guitar tuner
backing track
0:00
0:00
Autoscroll
slow
fast
+/-
esc
set tempo
stop
Author
ok, i listened to the song by ear and heres what i came up with...

      main verse n intro thingy    before chorus
e|-----0-2-2-2-2-----0-2-2-2-2--|--------0-2-2-2-2---------------------------|
B|-2-2-0-3-3-3-3-----0-3-3-3-3--|--0-2-2-0-3-3-3-3--0------------------------|
G|-2-2-0-2-2-2-2-1-1-0-2-2-2-3--|--0-2-2-0-2-2-2-2--0-1-1-1-1----------------|
D|-2-2-----------2-2------------|--0-2-2------------0-2-2-2-2----------------|
A|---------------2-2------------|---------------------2-2-2-2----------------|
E|------------------------------|--------------------------------------------|
   2 Fills                 Solo, havent played it in a while so im shabby
e|--------|-----------|----------------------------------------------------|
B|--------|-----------|----------------------------------------------------|
G|-7b-7br/|2h4p2h4p2--|-10p7h10p7h10/12/10p7-6p5h6p5h6/10/6p5-7p5h7p5/3h5--|
D|--------|-----------|----------------------------------------------------|
A|--------|-----------|----------------------------------------------------|
E|--------|-----------|----------------------------------------------------|


then i forget the rest, idk if you bend G string 2nd fret or something. anyways have fun 
your guitar and smashing it to finish the song xD

Neo14085
neo-14085@hotmail.co.uk
Suggest correction
comments
print report bad tab
4 comments total. Showing first comments.
0 reply
bucketheadShred 106 Jul 10, 2009 02:33 PM

Whats that chord at the end of the first bar or whatever:

e|-2-|
b|-3-|
g|-3-|
d|---|
a|---|
e|---|

You might have made a mistake but other than that shes great. 5 stars.

0 reply
neo14085 100 Dec 15, 2009 01:19 PM

Mistake, yep.

0 reply
miskatsu 104 Aug 20, 2010 12:48 PM

WILD THING! YOU MAKE MY HEART SING!

guest
You may want to rate the tab now too:
select rating
Wanna post a correction for this tab? Suggest correction