Oops, an error
Loading. Please wait.

Wind Cries Mary Bass Tab

13,133 views 12 this week
2 commentsread comments
1 2 3 4 5
accurate
x 9
add to favorites
launch autoscroll
font size
0
reset
guitar tuner
Autoscroll
slow
fast
+/-
esc
set tempo
stop
Help us to improve Ultimate-Guitar.com Take our survey!
×
Difficulty
novice
  Intro:
 E|---------10h12-11h13-12h14-|
 A|-1/2/3---------------------|  2X
 D|---------------------------|
 G|---------------------------|

  Verse:
 E|---------------------------------------------------3|
 A|-----------23--33-----------23--33-----------23--33-|
 D|-3-321-0h5----3---3-321-0h5----3---3-321-0h5----3---| 
 G|----------------------------------------------------|
                                                             2X
 E|------------------------------------10h12-11h13-12h14-|
 A|------------1/2/3-------------1/2/3-------------------|
 D|------11111-------1-----11111-------------------------|
 G|-33333-------------33333------------------------------|

  Solo:                                 Third time do this:
 E|-------------------------------|    E|----------------------|
 A|-33333-11111------4-------3----| 2X A|-33333-11111------4---|
 D|-------------1146--4---3h5-5h3-|    D|-------------1146--4--|
 G|--------------------4----------|    G|--------------------4-|

  Then do this
 E|--------------------------------------------------|
 A|------5-----5------8-----8------11----11----3----3|
 D|--------------------------------------------------|
 G|-3333--3333---6666--6666---9999--9999---1111-1111-|

 Then back to verse.

    Outro:                         Then at end just do this.
 E|-------10h12-11h13-12h14-|     E|-------|
 A|-1/2/3-------------------| 2X  A|-1/2/3-|
 D|-------------------------|     D|-------|
 G|-------------------------|     G|-------|
Suggest correction
comments
print report bad tab
2 comments total.
-2 reply
Jag Black 10 wrote on May 2 2009, 02:46 pm

This is horrible. The entire tab is upside down...

0 reply
bassistnick 10 wrote on May 27 2012, 04:30 am

tab isn't upside down really, just labelled wrongly

guest
You may want to rate the tab now too:
select rating
Wanna post a correction for this tab? Suggest correction