Oops, an error
Loading. Please wait.

Grow Old With You Tab

12,270 views 9 this week
no commentswrite comment
1 2 3 4 5
excellent!
x 1
add to favorites
launch autoscroll
font size
0
reset
how to read this tab
guitar tuner
Tab Pro tools
  • play this tab
  • loop segment
  • change instrument
  • show fretboard
  • metronome
Autoscroll
slow
fast
+/-
esc
set tempo
stop
Contributor
Difficulty
novice
Grow old with you (different version, it’s live!)
Original author/singer: Adam Sandler
Artist: Jimmy Bondoc/Paolo Santos
Transcribed by: drew Castillo (from Aklan, Philippines)
Email: drew_castillo07@yahoo.com
Enjoy and please rate. Maraming salamat!

Standard tuning: Capo 2nd fret.

Legend:
h     -     hammer on
p     -     pull off
\     -     slide
~     -     let string
.     -     tap
u     -     upstrokes
d     -     down strokes

Intro:

|----------12-12-12--------7--9-9-9~~------------5~----|p
|-------------------10--------------------6~-----6~----|a
|---10h12--12------------6---------------5~---5--------|u
|---------------------------------------7~-------------|s
|--------------------------------------5~--------------|e
|------------------------------------------------------|

    d d u d d u      u   u   u   u    u   u   u   u
  .       .        .        .       .        .      .
|-------------------------2-------2--------4-------4---|
|-------2------2------3---3---3---3----5---5---5---5---|
|-------2------2------4---4---4---4----6---6---6---6---|
|-----2------2--------4---4---4---4----6---6---6---6---|
|---0------0-------------------------------------------|
|------------------------------------------------------|

    u    d     u   u   u u   u    u
             .                 .
-|-------2~-----------------------2~---------|
-|--3----3~----2---3---5-5---3----3~---------|
-|--4----2~----2---4---6-6---4----2~---------|
-|--4----0~----2---4---6-6---4----0~---------|
-|----3--0~---------------------3-0~---------|
-|-------------------------------------------|

Verse 1:

    d d u d d u      u      u        u    u
  .       .        .    .       .      .    .
|---------------------------2-------------4---|
|-------2------2------3-----3--------5----5---|
|-------2------2------4-----4--------6----6---|
|-----2------2--------4-----4--------6----6---|
|---0------0---------2-----2-------4-----4----|
|---------------------------------------------|
I wanna make you smile whenever you sad carry you around...

   d u   d u   d u  du   d     u d d u  d  d
        .     .     .   .    .         .           .
-|-------------------3---2-p------------2--2~---------|
-|---3-----2-----2---2---3-a---2-----2--3--3~---------|
-|---4-----2-----2---2---4-u---2-----2--4--2~---------|
-|---4-----2-----2---2---4-s---2---2----4--0~---------|
-|-3-----0-----0----0----2-e-----0------0--0~---------|
-|----------------------------------------------------|
...when your arthritis... ...grow old with you...

Verse 2:

    d d u d d u      u      u        u    u
  .       .        .    .       .      .    .
|---------------------------2-------------4---|
|-------2------2------3-----3--------5----5---|
|-------2------2------4-----4--------6----6---|
|-----2------2--------4-----4--------6----6---|
|---0------0---------2-----2-------4-----4----|
|---------------------------------------------|
I'll get you medicine when your tummy aches build you a fire...


   d u   d u   d u  du   d d  u d u u  dd  d  u  d   u  u
        .     .    .   .                           .       .
-|-------------------3---2--------3-----2--2----------------|
-|---3-----2-----2---2---3----2---2--2--3--3--2--2---3--5---|
-|---4-----2-----2---2---4----2---2--2--4--2--2--2---4--6---|
-|---4-----2-----2---2---4----2---2-----4--0--2--2---4--6---|
-|-3-----0-----0----0----2--0---0------2---------0----------|
-|----------------------------------------------------------|
When the furnace breaks it could be so nice growing old with you.

Chorus:
   u d u  u     u  d u u     u  u  u    u  u
         .   .            .          .       .
|---------4----------2-5--------3----------2-------|
|--5---5--5-----3----3-------2--2--2----3--3-------|
|--6---6--6-----2----2-------2--2--2----4--4-------|
|--6---6--6-----0--0---------2-----2----4--4-------|
|----4----------------------------------2----------|
|--------------------------------------------------|
I'll miss you I'll kiss you Give you my coat when you are cold

    u d u  u    u d  u u   u  u  u u  d
   .         .           .          .    .
-|---------4---------2-5--------------2----------|
-|--5---5--5----3----3-----2--3--5-5--3----------|
-|--6---6--6----2----2-----2--4--6-6--2----------|
-|--6---6--6----0--0-------2--4--6-6--0----------|
-|----4------------------------------------------|
-|-----------------------------------------------|
I need you I feed you Even let you hold the remote control

Verse 3:

    d d u d d u      u      u        u    u
  .       .        .    .       .      .    .
|---------------------------2-------------4---|
|-------2------2------3-----3--------5----5---|
|-------2------2------4-----4--------6----6---|
|-----2------2--------4-----4--------6----6---|
|---0------0---------2-----2-------4-----4----|
|---------------------------------------------|
Let me do the dishes in our kitchen sink put you to bed


   d u   d u   d u  du   d  d u d u  u dd  d  d  d   u  u
       .      .    .   .            .     .     .  .     .
-|-------------------3---2--------3-----2--2----------------|
-|---3-----2-----2---2---3----2---2--2--3--3--2--2---3--5---|
-|---4-----2-----2---2---4----2---2--2--4--2--2--2---4--6---|
-|---4-----2-----2---2---4----2---2-----4--0--2--2---4--6---|
-|-3-----0-----0----0----2--0---0------2---------0----------|
-|----------------------------------------------------------|
When you've had too much to drink I could be the man who grows old with you I wanna grow 
with you


Chorus:
   u d u  u     u  d u u     u  u  u   u   u
  .          .            .           .       .
|---------4----------2-5--------3----------2-------|
|--5---5--5-----3----3-------2--2--2----3--3-------|
|--6---6--6-----2----2-------2--2--2----4--4-------|
|--6---6--6-----0--0---------2-----2----4--4-------|
|----4----------------------------------2----------|
|--------------------------------------------------|
I'll miss you I'll kiss you Give you my coat when you are cold


    u d u  u    u  d u u   u  u u u   d
   .         .           .              .
-|---------4---------2-5--------------2----------|
-|--5---5--5----3----3-----2--3--5-5--3----------|
-|--6---6--6----2----2-----2--4--6-6--2----------|
-|--6---6--6----0--0-------2--4--6-6--0----------|
-|----4------------------------------------------|
-|-----------------------------------------------|
I need you I feed you Even let you hold the remote control


:)
comments
We did not receive enough feedback on this tab! Please rate:
print report bad tab
1 2 3 4 5
I want to post or [tab]
guest
You may want to rate the tab now too:
select rating
Please do not post tabs as comments. Select "correction" instead!