Oops, an error
Loading. Please wait.

I Beleive Tab

9,616 views 6 this week
no commentswrite comment
1 2 3 4 5
please rate
add to favorites
launch autoscroll
font size
0
reset
how to read this tab
guitar tuner
Tab Pro tools
  • play this tab
  • loop segment
  • change instrument
  • show fretboard
  • metronome
×
Best way to learn
"I Beleive"
Autoscroll
slow
fast
+/-
esc
set tempo
stop
Contributor
Tabbed by: Paolo Rico
Tuning: STandard

I Believe
by Jimmy BOndoc

Intro:
  F         Gm      Am      Bb
e-----1-------0--------0----1-|
b-------1----------1--------3-|
g-2--------3----0----2------3-|
d---3--------0--------------3-|
a------------------0-----0--1-|
e-1--------3------------------|

Verse:
 F         Gm       Am        Bb     Am   Gm      Am         C        D    C
e-----1-------0--------0--------------------0---------0--------0------5------
b-------1----------1--------3-----1---------------1-----------------7--------
g-2--------3----0----2--------3-----2---3-----0-----2------5----------------5
d---3--------0----------------------------0------------------5---------------
a------------------0-----0--1-----0---------------0-----0--3------3-5-----3--
e-1--------3----------------------------3------------------------------------


Refrain:
   Am    Bm        C#m       Dm       Em       Dm      C   Cm
e------------0-----------------5--------7------------------3-|
b-1------3------------5----6------------8------6-------5---4-|
g-------------------6--------7--------7-------7--------5---5-|
d---2------0------------------------------------------5----5-|
a-0---0--2-----2--4-----4--5-----5--7-----7--5---5--3----3-3-|
e------------------------------------------------------------|


Chorus:
F         Gm       Am       Bb       C        Dm       Am        Gm
e-----1-------0--------0--------1-------0-------1--------0--------0-----|
b-------1----------1--------3-----------1-------3----1-----------3----3-|
g-2--------3----0----2--------3---3-------0----2--2--------2----0---0---|
d---3--------0-------------------------2-----0---------2-------0-----0--|
a------------------0-----0--1--------3---------------0------------------|
e-1--------3-------------------------------------------------3----------|

F        Gm       Am       Bm       C#m    Bm    Am   Bm     C#m    Bm  C#m  
e-----1-------0--------0--------0-------------0----0-----0-----------------3-
b-------1----------1--------3----------5------3----1--3---------5------3---5-
g-2--------3----0----2--------4-------6--6---4-4---2----4------6------4----6-
d---3--------0-------------------------------------2-----------------------6-
a------------------0-----0--2-----2-4------2-------0--2----2-4----4-2----2-4-
e-1--------3-----------------------------------------------------------------

nxt tym ko na lng ipopost ung chords sa bridge, wla na kc q tym ngaun.Ü
----------------------------------------------------------------------------

    -whatever9-
     tracyaces1@yahoo.com
comments
We did not receive enough feedback on this tab! Please rate:
print report bad tab
1 2 3 4 5
I want to post or [tab]
guest
You may want to rate the tab now too:
select rating
Please do not post tabs as comments. Select "correction" instead!