Oops, an error
Loading. Please wait.

Let Me Be The One Tab

version 1
version 1

Whole song

  • I have supporting video tutorial for this tab which would help in easy learning.
  • This is the most accurate tab of this song.

Interactive

56,383 views 276 this week
5 commentsread comments
1 2 3 4 5
x 4
add to favorites
launch autoscroll
font size
0
reset
how to read this tab
guitar tuner
Autoscroll
slow
fast
+/-
esc
set tempo
stop
Help us to improve Ultimate-Guitar.com Take our survey!
×
jimmy bondoc
tabbed by ricky 
this is the best.
ignore the other version
this 95 % corrected
this song is dedecated to tezza joy
 hi tezza i love you
   INTRO:
         
e|--------12-12-12------------|----------------------------
B|--------------------12-14-14|------12---14-14------12--14
G|-----14----------14---------|--14--------------14--------
D|--12----------------11------|------9---------------9-----
A|----------------------------|----------------------------
E|----------------------------|----------------------------


e|--------12-12-12------------|---------------------2------
B|--------------------12-14-12|10-------------------3------
G|-----14----------14---------|------9--7-----------2------
D|--12----------------11------|------0-----7---2----4------
A|----------------------------|----------------0----2------
E|----------------------------|----------------------------


e|-------------------------------|---------------------0---------
B|-----0-----0^2p0---------------|-----0-----0^2p0---------------
G|----2----2---------------------|----2----2---------2----2------
D|---2---2-------0---------------|---2---2-------0---------------
A|--0----------------------------|--0----------------------------
E|-------------------------------|-------------------------------

e|------------------------0--x---|-----------------------------
B|-----0-----0^2p0-------0---x---|-----0-----0^2p0-------------
G|----2----2--------2---2----x---|----2----2----------2--------
D|---2---2-------0---------------|---2---2-------0-------------
A|--0----------------------------|-----------------------------



(here's the rest of the songs tabbed by someone else)



VERSE:
   Somebody told me you were leaving, I didn't know...
e|------------------------------0----|----------0------0---0--
B|-----0----x------------------3-----|-----0---0--x---2---2--x
G|----2-----x-----------------2------|----2---2---x--2---2---x
D|---2------x----------------0-------|---2--------x----------x
A|--0-------x------------------------|--0---------x----------x
E|-----------------------------------|------------------------
    A9                      D9          A9       D9
       
   Somebody told me you're unhappy, but it doesn't show...
e|------------------------------0--0-|------4--------2--------0-
B|-----0----x------------------3-----|------5---x----2------0---
G|----2-----x-----------------2------|------4---x----2----1-----
D|---2------x----------------0-------|------6---x----4----------
A|--0-------x------------------------|------4---x---------------
E|-----------------------------------|--------------------------
    A9                      D9             C#m7     F#m

   Somebody told me that you don't want me no more... no...
e|------0---0-------2---------4----0-|--7-----2----------------
B|-----3----------------------5------|--------3--------2^3-----
G|----2-----------------------4------|--------2----------------    
D|---0------------------------6------|--------4----------------
A|----------------------------4------|--------2------2---------
E|-----------------------------------|-------------------------
    D9                      C#m7              Bm7     F#m
    So you're walking out the door... 
e|------0----------------------------|
B|-----0-----------------------------|
G|----1------------------------------|
D|---2-------------------------------|
A|--2--------------------------------|
E|-0---------------------------------|
   E

   Nobody told me you've been crying every night...
e|------------------------------0----|----------0------0---0--
B|-----0----x------------------3-----|-----0---0--x---2---2--x
G|----2-----x-----------------2------|----2---2---x--2---2---x
D|---2------x----------------0-------|---2--------x----------x
A|--0-------x------------------------|--0---------x----------x
E|-----------------------------------|------------------------
    A9                      D9          A9       D9
       
   Nobody told me you'd been dying, but didn't want to fight...
e|------------------------------0--0-|------4--------2--------0-
B|-----0----x------------------3-----|------5---x----2------0---
G|----2-----x-----------------2------|------4---x----2----1-----
D|---2------x----------------0-------|------6---x----4----------
A|--0-------x------------------------|------4---x---------------
E|-----------------------------------|--------------------------
    A9                      D9             C#m7     F#m

   Nobody told me you that you fell out of love for me, 
e|------0------0-------2------4----0-|-------7------2----------
B|-----3----------------------5------|--------------3----------
G|----2-----------------------4------|--------------2----------    
D|---0------------------------6------|--------------4----------
A|----------------------------4------|--------------2----------
E|-----------------------------------|-------------------------
    D9                      C#m7                   Bm7     
    So I'm setting you free...  
e|------0----------------------------|------0----------2-----------
B|-----0-----------------------------|---0-------------2-----------
G|----1------------------------------|-----------------2-----------
D|---2-------------------------------|-----------------4-----------
A|--2--------------------------------|---0---------------------
E|-0---------------------------------|-------------------------
   E                                     A9           F#m


CHORUS:
  Let me be the one to break it up so you won't have to make excuses...
e|-------0------0-------------------|----0-------------------------0----0
B|---------------------------2--2---|--------------------2------0------2-
G|-----------2------2---4-----------|-2-----2---4------------2--------2--
D|-------0--------------------------|----------------2-------------------
A|----------------------4-----------|-----------2---------------0--------
E|----------------------------------|------------------------------------
         D9            C#m7                     Bm7             A9

We don't need to find a set-up where someone wins and someone loses...
e|-------------0--------------------|----0-------------------------0----0
B|---------------------------2--2---|--------------------2------0------2-
G|----------2-------2---4-----------|-2---------4------------2--------2--
D|-------0--------------------------|----------------2-------------------
A|----------------------4-----------|-----------2---------------0--------
E|----------------------------------|------------------------------------
         D9            C#m7                     Bm7             A9
We just have to say our love was true but is now become a lie...
e|-------------0--------------------|--------------2---------------------
B|----------------------------------|-------------------2-3--------------
G|----------2----2---------4--------|-----------2---------2--------------
D|-------0---------------6-------2--|--------4------------4--------------
A|---------------------4------------|---------------------2--------------
E|----------------------------------|------------------------------------
         D9            F                     F#m             Bm7

So I'm telling you I love you one last time...      And goodbye... 
e|-------0-----------------------|---------------------0---
B|----------------------2--------|-----3--------------0----
G|-----2-----2------4------4--2--|----2--------------1-----
D|--0----------------------------|---4--------------2------
A|------------------4------------|--2--------------2-------
E|-------------------------------|----------------0--------
    D9              C#m7            Bm7           E


e|-------0---------------------|---------------------0---
B|----------------------2------|-----0--------------0----
G|-----2-----2------4----------|----0--0-----------1-----
D|--0--------------------------|---2------2-------2------
A|------------------4----------|--3--------------2-------
E|-----------------------------|----------------0--------
    D9              C#m7          C9            E

( e|--------12-12-12------------|---------------------2------ )
( B|--------------------12-14-12|10-------------------3------ )
( G|-----14----------14---------|------9--7-----------2------ )
( D|--12----------------11------|------0-----7---2----4------ )
( A|----------------------------|----------------0----2------ )
( E|----------------------------|---------------------------- )


e|-------5-------------------
B|---3s5---5s3s2-------------
G|---------------------------


VERSE 2
   Somebody told me you still love me, I don't know why...
e|---------------0--------------0--0-|2-0-------------0----0--
B|-----0-----------------------3-----|--------0-x----2--------
G|----2-----------------------2------|-------2--x---2---------
D|---2-----------------------0-------|------2---x-------------
A|--0--------------------------------|-----0----x-------------
E|-----------------------------------|------------------------
    A9                      D9          A9       D9
       
   Nobody told me that you only needed time to fly...
e|------------------------------0----|------4--------2--------0-
B|-----0----x------------------3-----|------5---x----2------0---
G|----2-----x-----------------2------|------4---x----2----1-----
D|---2------x----------------0-------|------6---x----4----------
A|--0-------x------------------------|------4---x-------2-------
E|-----------------------------------|--------------------------
    A9                      D9             C#m7     F#m

   Somebody told me that you want to come back when... 
e|------0----------------0-----0---0-|-7---0--2------------(3/9)
B|-----3--x-------------3-----2------|--------3--------2^3-----
G|----2---x------------2-----2-------|--------2----------------    
D|---0----x-----------0-----0--------|--------4----------------
A|--------x--------------------------|--------2------2---------
E|-----------------------------------|-------------------------
    D9                      C#m7                   Bm7     
    Our love is real again...   
e|------0----------------------------|------0----------2-----------
B|-----0-----------------------------|---0-------------2-----------
G|----1------------------------------|-----------------2-----------
D|---2-------------------------------|-----------------4-----------
A|--2--------------------------------|---0---------------------
E|-0---------------------------------|-------------------------
   E                                     A9           F#m


CHORUS:
  Let me be the one to break it up so you won't have to make excuses...
e|-------0------0-------------------|----0-------------------------0----0
B|---------------------------2--2---|--------------------2------0------2-
G|-----------2------2---4-----------|-2-----2---4------------2--------2--
D|-------0--------------------------|----------------2-------------------
A|----------------------4-----------|-----------2---------------0--------
E|----------------------------------|------------------------------------
         D9            C#m7                     Bm7             A9

We don't need to find a set-up where someone wins and someone loses...
e|-------------0--------------------|----0-------------------------0----0
B|---------------------------2--2---|--------------------2------0------2-
G|----------2-------2---4-----------|-2---------4------------2--------2--
D|-------0--------------------------|----------------2-------------------
A|----------------------4-----------|-----------2---------------0--------
E|----------------------------------|------------------------------------
         D9            C#m7                     Bm7             A9
We just have to say our love was true but is now become a lie...
e|-------------0--------------------|--------------2---------------------
B|----------------------------------|-------------------2-3--------------
G|----------2----2---------4--------|-----------2---------2--------------
D|-------0---------------6-------2--|--------4------------4--------------
A|---------------------4------------|---------------------2--------------
E|----------------------------------|------------------------------------
         D9            F                     F#m             Bm7

So I'm telling you I love you one last time...      And goodbye... 
e|-------0-----------------------|------------------------------0---
B|----------------------2--------|-----3-----------------------0----
G|-----2-----2------4------4--2--|----2-----------------------1-----
D|--0----------------------------|---4-----------------------2------
A|------------------4------------|--2-----------------------2-------
E|-------------------------------|-------------------------0--------

BRIDGE:
      D9                      C#m7

                   Bm7

            E                   F#m

              E                 F#m  - E 

       F#m            E                          F#m              E

        G                      Bm7                 D9               E

E
nalimutan k kc ung lyrics ikay nlang maghanap na.


REPEAT CHORUS
AND INTRO
Suggest correction
comments
print report bad tab
5 comments total. Showing first comments.
0 reply
iaznxbreakeri 10 Oct 30, 2003 12:00 AM

GOOD JOB JACKING MY FCKEN TAB "RICKY" ... WRITE UR OWN ***.. and if you're gonna copy my tab. . at least give credit to me .. THATS ALL OF MY ORIGINAL WORK .. I TOOK HOURS TO Re-TAB ALL OF THAT SONG .. fck you .. http://www.e-tabs.org/tab/jimmy_bondoc/let_me_be_the_one_(acoustic)

0 reply
iaznxbreakeri 10 Oct 30, 2003 12:00 AM

GOOD JOB JACKING MY FCKEN TAB "RICKY" ... WRITE UR OWN ***.. and if you're gonna copy my tab. . at least give credit to me .. THATS ALL OF MY ORIGINAL WORK .. I TOOK HOURS TO Re-TAB ALL OF THAT SONG .. fck you .. http://www.e-tabs.org/tab/jimmy_bondoc/let_me_be_the_one_(acoustic)

0 reply
iaznxbreakeri 10 Oct 30, 2003 12:00 AM

GOOD JOB JACKING MY FCKEN TAB "RICKY" ... WRITE UR OWN ***.. and if you're gonna copy my tab. . at least give credit to me .. THATS ALL OF MY ORIGINAL WORK .. I TOOK HOURS TO Re-TAB ALL OF THAT SONG .. fck you .. http://www.e-tabs.org/tab/jimmy_bondoc/let_me_be_the_one_(acoustic)

guest
You may want to rate the tab now too:
select rating
Wanna post a correction for this tab? Suggest correction